  0
SECTION
  2
HEADER
  9
$ACADVER
  1
AC1015
  9
$ACADMAINTVER
 70
    20
  9
$DWGCODEPAGE
  3
ANSI_932
  9
$INSBASE
 10
0.0
 20
0.0
 30
0.0
  9
$EXTMIN
 10
-715.0439419597901
 20
-1110.975309116444
 30
-0.0015258207003583
  9
$EXTMAX
 10
725.0439486653122
 20
1030.065206056067
 30
0.0000000349246037
  9
$LIMMIN
 10
0.0
 20
0.0
  9
$LIMMAX
 10
0.0
 20
0.0
  9
$ORTHOMODE
 70
     0
  9
$REGENMODE
 70
     1
  9
$FILLMODE
 70
     1
  9
$QTEXTMODE
 70
     0
  9
$MIRRTEXT
 70
     1
  9
$LTSCALE
 40
101.6
  9
$ATTMODE
 70
     1
  9
$TEXTSIZE
 40
0.0
  9
$TRACEWID
 40
1.0
  9
$TEXTSTYLE
  7
STANDARD
  9
$CLAYER
  8
DATA
  9
$CELTYPE
  6
ByLayer
  9
$CECOLOR
 62
   256
  9
$CELTSCALE
 40
1.0
  9
$DISPSILH
 70
     0
  9
$DIMSCALE
 40
1.0
  9
$DIMASZ
 40
0.18
  9
$DIMEXO
 40
0.0625
  9
$DIMDLI
 40
0.38
  9
$DIMRND
 40
0.0
  9
$DIMDLE
 40
0.0
  9
$DIMEXE
 40
0.18
  9
$DIMTP
 40
0.0
  9
$DIMTM
 40
0.0
  9
$DIMTXT
 40
0.18
  9
$DIMCEN
 40
0.09
  9
$DIMTSZ
 40
0.0
  9
$DIMTOL
 70
     0
  9
$DIMLIM
 70
     0
  9
$DIMTIH
 70
     1
  9
$DIMTOH
 70
     1
  9
$DIMSE1
 70
     0
  9
$DIMSE2
 70
     0
  9
$DIMTAD
 70
     0
  9
$DIMZIN
 70
     0
  9
$DIMBLK
  1

  9
$DIMASO
 70
     1
  9
$DIMSHO
 70
     1
  9
$DIMPOST
  1

  9
$DIMAPOST
  1

  9
$DIMALT
 70
     0
  9
$DIMALTD
 70
     2
  9
$DIMALTF
 40
25.4
  9
$DIMLFAC
 40
1.0
  9
$DIMTOFL
 70
     0
  9
$DIMTVP
 40
0.0
  9
$DIMTIX
 70
     0
  9
$DIMSOXD
 70
     0
  9
$DIMSAH
 70
     0
  9
$DIMBLK1
  1

  9
$DIMBLK2
  1

  9
$DIMSTYLE
  2
STANDARD
  9
$DIMCLRD
 70
     0
  9
$DIMCLRE
 70
     0
  9
$DIMCLRT
 70
     0
  9
$DIMTFAC
 40
1.0
  9
$DIMGAP
 40
0.09
  9
$DIMJUST
 70
     0
  9
$DIMSD1
 70
     0
  9
$DIMSD2
 70
     0
  9
$DIMTOLJ
 70
     1
  9
$DIMTZIN
 70
     0
  9
$DIMALTZ
 70
     0
  9
$DIMALTTZ
 70
     0
  9
$DIMUPT
 70
     0
  9
$DIMDEC
 70
     4
  9
$DIMTDEC
 70
     4
  9
$DIMALTU
 70
     2
  9
$DIMALTTD
 70
     2
  9
$DIMTXSTY
  7
STANDARD
  9
$DIMAUNIT
 70
     0
  9
$DIMADEC
 70
     0
  9
$DIMALTRND
 40
0.0
  9
$DIMAZIN
 70
     0
  9
$DIMDSEP
 70
    46
  9
$DIMATFIT
 70
     3
  9
$DIMFRAC
 70
     0
  9
$DIMLDRBLK
  1

  9
$DIMLUNIT
 70
     2
  9
$DIMLWD
 70
    -2
  9
$DIMLWE
 70
    -2
  9
$DIMTMOVE
 70
     0
  9
$LUNITS
 70
     2
  9
$LUPREC
 70
     4
  9
$SKETCHINC
 40
0.1
  9
$FILLETRAD
 40
0.0
  9
$AUNITS
 70
     0
  9
$AUPREC
 70
     0
  9
$MENU
  1
acad
  9
$ELEVATION
 40
0.0
  9
$PELEVATION
 40
0.0
  9
$THICKNESS
 40
0.0
  9
$LIMCHECK
 70
     0
  9
$CHAMFERA
 40
0.0
  9
$CHAMFERB
 40
0.0
  9
$CHAMFERC
 40
0.0
  9
$CHAMFERD
 40
0.0
  9
$SKPOLY
 70
     0
  9
$TDCREATE
 40
2457812.606747685
  9
$TDUCREATE
 40
2457812.231747685
  9
$TDUPDATE
 40
2457812.758009259
  9
$TDUUPDATE
 40
2457812.383009259
  9
$TDINDWG
 40
0.0003819444
  9
$TDUSRTIMER
 40
0.0003819444
  9
$USRTIMER
 70
     1
  9
$ANGBASE
 50
0.0
  9
$ANGDIR
 70
     0
  9
$PDMODE
 70
     1
  9
$PDSIZE
 40
-2.0
  9
$PLINEWID
 40
0.0
  9
$SPLFRAME
 70
     0
  9
$SPLINETYPE
 70
     6
  9
$SPLINESEGS
 70
     8
  9
$HANDSEED
  5
553
  9
$SURFTAB1
 70
     6
  9
$SURFTAB2
 70
     6
  9
$SURFTYPE
 70
     6
  9
$SURFU
 70
     6
  9
$SURFV
 70
     6
  9
$UCSBASE
  2

  9
$UCSNAME
  2

  9
$UCSORG
 10
0.0
 20
0.0
 30
0.0
  9
$UCSXDIR
 10
1.0
 20
0.0
 30
0.0
  9
$UCSYDIR
 10
0.0
 20
1.0
 30
0.0
  9
$UCSORTHOREF
  2

  9
$UCSORTHOVIEW
 70
     0
  9
$UCSORGTOP
 10
0.0
 20
0.0
 30
0.0
  9
$UCSORGBOTTOM
 10
0.0
 20
0.0
 30
0.0
  9
$UCSORGLEFT
 10
0.0
 20
0.0
 30
0.0
  9
$UCSORGRIGHT
 10
0.0
 20
0.0
 30
0.0
  9
$UCSORGFRONT
 10
0.0
 20
0.0
 30
0.0
  9
$UCSORGBACK
 10
0.0
 20
0.0
 30
0.0
  9
$PUCSBASE
  2

  9
$PUCSNAME
  2

  9
$PUCSORG
 10
0.0
 20
0.0
 30
0.0
  9
$PUCSXDIR
 10
1.0
 20
0.0
 30
0.0
  9
$PUCSYDIR
 10
0.0
 20
1.0
 30
0.0
  9
$PUCSORTHOREF
  2

  9
$PUCSORTHOVIEW
 70
     0
  9
$PUCSORGTOP
 10
0.0
 20
0.0
 30
0.0
  9
$PUCSORGBOTTOM
 10
0.0
 20
0.0
 30
0.0
  9
$PUCSORGLEFT
 10
0.0
 20
0.0
 30
0.0
  9
$PUCSORGRIGHT
 10
0.0
 20
0.0
 30
0.0
  9
$PUCSORGFRONT
 10
0.0
 20
0.0
 30
0.0
  9
$PUCSORGBACK
 10
0.0
 20
0.0
 30
0.0
  9
$USERI1
 70
     0
  9
$USERI2
 70
     0
  9
$USERI3
 70
     0
  9
$USERI4
 70
     0
  9
$USERI5
 70
     0
  9
$USERR1
 40
0.0
  9
$USERR2
 40
0.0
  9
$USERR3
 40
0.0
  9
$USERR4
 40
0.0
  9
$USERR5
 40
0.0
  9
$WORLDVIEW
 70
     1
  9
$SHADEDGE
 70
     3
  9
$SHADEDIF
 70
    70
  9
$TILEMODE
 70
     1
  9
$MAXACTVP
 70
    64
  9
$PINSBASE
 10
0.0
 20
0.0
 30
0.0
  9
$PLIMCHECK
 70
     0
  9
$PEXTMIN
 10
1.000000000000000E+20
 20
1.000000000000000E+20
 30
1.000000000000000E+20
  9
$PEXTMAX
 10
-1.000000000000000E+20
 20
-1.000000000000000E+20
 30
-1.000000000000000E+20
  9
$PLIMMIN
 10
0.0
 20
0.0
  9
$PLIMMAX
 10
12.0
 20
9.0
  9
$UNITMODE
 70
     0
  9
$VISRETAIN
 70
     0
  9
$PLINEGEN
 70
     1
  9
$PSLTSCALE
 70
     0
  9
$TREEDEPTH
 70
  3020
  9
$CMLSTYLE
  2
Standard
  9
$CMLJUST
 70
     0
  9
$CMLSCALE
 40
1.0
  9
$PROXYGRAPHICS
 70
     1
  9
$MEASUREMENT
 70
     0
  9
$CELWEIGHT
370
    -1
  9
$ENDCAPS
280
     0
  9
$JOINSTYLE
280
     0
  9
$LWDISPLAY
290
     0
  9
$INSUNITS
 70
     0
  9
$HYPERLINKBASE
  1

  9
$STYLESHEET
  1

  9
$XEDIT
290
     1
  9
$CEPSNTYPE
380
     0
  9
$PSTYLEMODE
290
     1
  9
$FINGERPRINTGUID
  2
{841EB22F-F5E8-8344-A7E0-1D1009901AC6}
  9
$VERSIONGUID
  2
{1923804B-E27C-9C41-BB1B-00C30C6D23F1}
  9
$EXTNAMES
290
     1
  9
$PSVPSCALE
 40
0.0
  9
$OLESTARTUP
290
     0
  0
ENDSEC
  0
SECTION
  2
CLASSES
  0
CLASS
  1
ACDBDICTIONARYWDFLT
  2
AcDbDictionaryWithDefault
  3
ObjectDBX Classes
 90
        0
280
     0
281
     0
  0
CLASS
  1
MATERIAL
  2
AcDbMaterial
  3
ObjectDBX Classes
 90
     1153
280
     0
281
     0
  0
CLASS
  1
VISUALSTYLE
  2
AcDbVisualStyle
  3
ObjectDBX Classes
 90
     4095
280
     0
281
     0
  0
CLASS
  1
SCALE
  2
AcDbScale
  3
ObjectDBX Classes
 90
     1153
280
     0
281
     0
  0
CLASS
  1
TABLESTYLE
  2
AcDbTableStyle
  3
ObjectDBX Classes
 90
     4095
280
     0
281
     0
  0
CLASS
  1
MLEADERSTYLE
  2
AcDbMLeaderStyle
  3
ACDB_MLEADERSTYLE_CLASS
 90
     4095
280
     0
281
     0
  0
CLASS
  1
ACDBSECTIONVIEWSTYLE
  2
AcDbSectionViewStyle
  3
ObjectDBX Classes
 90
     1025
280
     0
281
     0
  0
CLASS
  1
ACDBDETAILVIEWSTYLE
  2
AcDbDetailViewStyle
  3
ObjectDBX Classes
 90
     1025
280
     0
281
     0
  0
CLASS
  1
DICTIONARYVAR
  2
AcDbDictionaryVar
  3
ObjectDBX Classes
 90
        0
280
     0
281
     0
  0
CLASS
  1
CELLSTYLEMAP
  2
AcDbCellStyleMap
  3
ObjectDBX Classes
 90
     1152
280
     0
281
     0
  0
CLASS
  1
ACDBPLACEHOLDER
  2
AcDbPlaceHolder
  3
ObjectDBX Classes
 90
        0
280
     0
281
     0
  0
CLASS
  1
LAYOUT
  2
AcDbLayout
  3
ObjectDBX Classes
 90
        0
280
     0
281
     0
  0
ENDSEC
  0
SECTION
  2
TABLES
  0
TABLE
  2
VPORT
  5
47C
330
0
100
AcDbSymbolTable
 70
     1
  0
VPORT
  5
4E8
330
47C
100
AcDbSymbolTableRecord
100
AcDbViewportTableRecord
  2
*ACTIVE
 70
     0
 10
0.0
 20
0.0
 11
1.0
 21
1.0
 12
5.000003352761268
 22
-40.45505153018803
 13
0.0
 23
0.0
 14
1.0
 24
1.0
 15
0.0
 25
0.0
 16
0.0
 26
0.0
 36
1.0
 17
0.0
 27
0.0
 37
0.0
 40
2152.957252733769
 41
2.358402971216341
 42
50.0
 43
0.0
 44
0.0
 50
0.0
 51
0.0
 71
     0
 72
  2000
 73
     1
 74
     1
 75
     0
 76
     0
 77
     0
 78
     0
281
     0
 65
     1
110
0.0
120
0.0
130
0.0
111
1.0
121
0.0
131
0.0
112
0.0
122
1.0
132
0.0
 79
     0
146
0.0
1001
ACAD_NAV_VCDISPLAY
1070
     3
  0
ENDTAB
  0
TABLE
  2
LTYPE
  5
479
330
0
100
AcDbSymbolTable
 70
    12
  0
LTYPE
  5
4CE
330
479
100
AcDbSymbolTableRecord
100
AcDbLinetypeTableRecord
  2
ByBlock
 70
     0
  3

 72
    65
 73
     0
 40
0.0
  0
LTYPE
  5
4CF
330
479
100
AcDbSymbolTableRecord
100
AcDbLinetypeTableRecord
  2
ByLayer
 70
     0
  3

 72
    65
 73
     0
 40
0.0
  0
LTYPE
  5
4D0
330
479
100
AcDbSymbolTableRecord
100
AcDbLinetypeTableRecord
  2
CONTINUOUS
 70
     0
  3
Solid line
 72
    65
 73
     0
 40
0.0
  0
ENDTAB
  0
TABLE
  2
LAYER
  5
476
330
0
100
AcDbSymbolTable
 70
     5
  0
LAYER
  5
4C8
102
{ACAD_XDICTIONARY
360
4FD
102
}
330
476
100
AcDbSymbolTableRecord
100
AcDbLayerTableRecord
  2
0
 70
     0
 62
     7
  6
CONTINUOUS
370
    -3
390
483
  0
LAYER
  5
4E7
102
{ACAD_XDICTIONARY
360
4FF
102
}
330
476
100
AcDbSymbolTableRecord
100
AcDbLayerTableRecord
  2
DATA
 70
     0
 62
     7
  6
CONTINUOUS
370
    -3
390
483
  0
LAYER
  5
4F4
102
{ACAD_XDICTIONARY
360
501
102
}
330
476
100
AcDbSymbolTableRecord
100
AcDbLayerTableRecord
  2
HIBINO-BASE
 70
     0
 62
     7
  6
CONTINUOUS
370
    -3
390
483
  0
LAYER
  5
4F5
102
{ACAD_XDICTIONARY
360
503
102
}
330
476
100
AcDbSymbolTableRecord
100
AcDbLayerTableRecord
  2
SPEC
 70
     0
 62
     7
  6
CONTINUOUS
370
    -3
390
483
  0
LAYER
  5
4F6
102
{ACAD_XDICTIONARY
360
505
102
}
330
476
100
AcDbSymbolTableRecord
100
AcDbLayerTableRecord
  2
DIMNSIONS
 70
     0
 62
     7
  6
CONTINUOUS
370
    -3
390
483
  0
ENDTAB
  0
TABLE
  2
STYLE
  5
477
330
0
100
AcDbSymbolTable
 70
     3
  0
STYLE
  5
4C9
330
477
100
AcDbSymbolTableRecord
100
AcDbTextStyleTableRecord
  2
STANDARD
 70
     0
 40
0.0
 41
1.0
 50
0.0
 71
     0
 42
0.0
  3
txt
  4
BIGFONT.SHX
  0
ENDTAB
  0
TABLE
  2
VIEW
  5
47A
330
0
100
AcDbSymbolTable
 70
     0
  0
ENDTAB
  0
TABLE
  2
UCS
  5
47B
330
0
100
AcDbSymbolTable
 70
     0
  0
ENDTAB
  0
TABLE
  2
APPID
  5
47D
330
0
100
AcDbSymbolTable
 70
     4
  0
APPID
  5
4CA
330
47D
100
AcDbSymbolTableRecord
100
AcDbRegAppTableRecord
  2
ACAD
 70
     0
  0
APPID
  5
4D1
330
47D
100
AcDbSymbolTableRecord
100
AcDbRegAppTableRecord
  2
AcadAnnotative
 70
     0
  0
APPID
  5
511
330
47D
100
AcDbSymbolTableRecord
100
AcDbRegAppTableRecord
  2
ACAD_NAV_VCDISPLAY
 70
     0
  0
APPID
  5
54A
330
47D
100
AcDbSymbolTableRecord
100
AcDbRegAppTableRecord
  2
ACAD_MLEADERVER
 70
     0
  0
ENDTAB
  0
TABLE
  2
DIMSTYLE
  5
47E
330
0
100
AcDbSymbolTable
 70
     2
100
AcDbDimStyleTable
 71
     0
  0
DIMSTYLE
105
4CB
330
47E
100
AcDbSymbolTableRecord
100
AcDbDimStyleTableRecord
  2
STANDARD
 70
     0
279
     2
340
4C9
  0
ENDTAB
  0
TABLE
  2
BLOCK_RECORD
  5
475
330
0
100
AcDbSymbolTable
 70
     0
  0
BLOCK_RECORD
  5
4E3
330
475
100
AcDbSymbolTableRecord
100
AcDbBlockTableRecord
  2
*Model_Space
340
4E6
  0
BLOCK_RECORD
  5
4DF
330
475
100
AcDbSymbolTableRecord
100
AcDbBlockTableRecord
  2
*Paper_Space
340
4E2
  0
ENDTAB
  0
ENDSEC
  0
SECTION
  2
BLOCKS
  0
BLOCK
  5
4E4
330
4E3
100
AcDbEntity
  8
0
100
AcDbBlockBegin
  2
*Model_Space
 70
     0
 10
0.0
 20
0.0
 30
0.0
  3
*Model_Space
  1

  0
ENDBLK
  5
4E5
330
4E3
100
AcDbEntity
  8
0
100
AcDbBlockEnd
  0
BLOCK
  5
4E0
330
4DF
100
AcDbEntity
 67
     1
  8
0
100
AcDbBlockBegin
  2
*Paper_Space
 70
     0
 10
0.0
 20
0.0
 30
0.0
  3
*Paper_Space
  1

  0
ENDBLK
  5
4E1
330
4DF
100
AcDbEntity
 67
     1
  8
0
100
AcDbBlockEnd
  0
ENDSEC
  0
SECTION
  2
ENTITIES
  0
LINE
  5
2D
330
4E3
100
AcDbEntity
  8
HIBINO-BASE
  6
Continuous
 62
     7
100
AcDbLine
 10
-715.0
 20
1030.0
 30
0.0
 11
725.0
 21
1030.0
 31
0.0
  0
LINE
  5
2E
330
4E3
100
AcDbEntity
  8
HIBINO-BASE
  6
Continuous
 62
     7
100
AcDbLine
 10
725.0
 20
-1050.0
 30
0.0
 11
-715.0
 21
-1050.0
 31
0.0
  0
LINE
  5
2F
330
4E3
100
AcDbEntity
  8
HIBINO-BASE
  6
Continuous
 62
     7
100
AcDbLine
 10
-715.0
 20
-1050.0
 30
0.0
 11
-715.0
 21
1030.0
 31
0.0
  0
LINE
  5
30
330
4E3
100
AcDbEntity
  8
HIBINO-BASE
  6
Continuous
 62
     7
100
AcDbLine
 10
725.0
 20
1030.0
 30
0.0
 11
725.0
 21
-1050.0
 31
0.0
  0
LINE
  5
31
330
4E3
100
AcDbEntity
  8
HIBINO-BASE
  6
Continuous
 62
     7
100
AcDbLine
 10
5.0
 20
-870.0
 30
0.0
 11
725.0
 21
-870.0
 31
0.0
  0
LINE
  5
32
330
4E3
100
AcDbEntity
  8
HIBINO-BASE
  6
Continuous
 62
     7
100
AcDbLine
 10
5.0
 20
-1050.0
 30
0.0
 11
5.0
 21
-870.0
 31
0.0
  0
TEXT
  5
33
330
4E3
100
AcDbEntity
  8
HIBINO-BASE
 62
     7
100
AcDbText
 10
12.2
 20
-890.0695466666665
 30
0.0
 40
13.03072916666667
  1
NOTE
 41
0.7
 11
12.2
 21
-877.0388174999999
 31
0.0
100
AcDbText
 73
     3
  0
LINE
  5
34
330
4E3
100
AcDbEntity
  8
HIBINO-BASE
  6
Continuous
 62
     7
100
AcDbLine
 10
285.0
 20
-1050.0
 30
0.0
 11
285.0
 21
-870.0
 31
0.0
  0
TEXT
  5
35
330
4E3
100
AcDbEntity
  8
HIBINO-BASE
 62
     7
100
AcDbText
 10
292.2
 20
-890.0695466666665
 30
0.0
 40
13.03072916666667
  1
TITLE
 41
0.7
 11
292.2
 21
-877.0388174999999
 31
0.0
100
AcDbText
 73
     3
  0
LINE
  5
36
330
4E3
100
AcDbEntity
  8
HIBINO-BASE
  6
Continuous
 62
     7
100
AcDbLine
 10
5.0
 20
-970.0
 30
0.0
 11
725.0
 21
-970.0
 31
0.0
  0
TEXT
  5
37
330
4E3
100
AcDbEntity
  8
HIBINO-BASE
 62
     7
100
AcDbText
 10
392.2000000000001
 20
-989.6189866666667
 30
0.0
 40
13.03072916666667
  1
DRAWN
 41
0.7
 11
392.2000000000001
 21
-976.5882575
 31
0.0
100
AcDbText
 73
     3
  0
TEXT
  5
38
330
4E3
100
AcDbEntity
  8
HIBINO-BASE
 62
     7
100
AcDbText
 10
192.2
 20
-989.6189866666667
 30
0.0
 40
13.03072916666667
  1
DATE
 41
0.7
 11
192.2
 21
-976.5882575
 31
0.0
100
AcDbText
 73
     3
  0
TEXT
  5
39
330
4E3
100
AcDbEntity
  8
HIBINO-BASE
 62
     7
100
AcDbText
 10
112.2
 20
-989.6189866666667
 30
0.0
 40
13.03072916666667
  1
SCALE
 41
0.7
 11
112.2
 21
-976.5882575
 31
0.0
100
AcDbText
 73
     3
  0
TEXT
  5
3A
330
4E3
100
AcDbEntity
  8
HIBINO-BASE
 62
     7
100
AcDbText
 10
292.2
 20
-989.6189866666667
 30
0.0
 40
13.03072916666667
  1
DESIGN
 41
0.7
 11
292.2
 21
-976.5882575
 31
0.0
100
AcDbText
 73
     3
  0
TEXT
  5
3B
330
4E3
100
AcDbEntity
  8
HIBINO-BASE
 62
     7
100
AcDbText
 10
592.2000000000001
 20
-989.6189866666667
 30
0.0
 40
13.03072916666667
  1
DRAWING NO.
 41
0.7
 11
592.2000000000001
 21
-976.5882575
 31
0.0
100
AcDbText
 73
     3
  0
TEXT
  5
3C
330
4E3
100
AcDbEntity
  8
HIBINO-BASE
 62
     7
100
AcDbText
 10
492.2000000000001
 20
-989.6189866666667
 30
0.0
 40
13.03072916666667
  1
CHECK
 41
0.7
 11
492.2000000000001
 21
-976.5882575
 31
0.0
100
AcDbText
 73
     3
  0
LINE
  5
3D
330
4E3
100
AcDbEntity
  8
HIBINO-BASE
  6
Continuous
 62
     7
100
AcDbLine
 10
120.0
 20
-1040.0
 30
0.0
 11
150.0
 21
-1010.0
 31
0.0
  0
TEXT
  5
3E
330
4E3
100
AcDbEntity
  8
HIBINO-BASE
 62
     7
100
AcDbText
 10
115.0
 20
-1018.871546666667
 30
0.0
 40
13.03072916666667
  1
1
 41
0.7
 11
115.0
 21
-1005.8408175
 31
0.0
100
AcDbText
 73
     3
  0
LINE
  5
3F
330
4E3
100
AcDbEntity
  8
HIBINO-BASE
  6
Continuous
 62
     7
100
AcDbLine
 10
105.0
 20
-1050.0
 30
0.0
 11
105.0
 21
-970.0
 31
0.0
  0
LINE
  5
40
330
4E3
100
AcDbEntity
  8
HIBINO-BASE
  6
Continuous
 62
     7
100
AcDbLine
 10
185.0
 20
-1050.0
 30
0.0
 11
185.0
 21
-970.0
 31
0.0
  0
LINE
  5
41
330
4E3
100
AcDbEntity
  8
HIBINO-BASE
  6
Continuous
 62
     7
100
AcDbLine
 10
385.0
 20
-970.0
 30
0.0
 11
385.0
 21
-1050.0
 31
0.0
  0
LINE
  5
42
330
4E3
100
AcDbEntity
  8
HIBINO-BASE
  6
Continuous
 62
     7
100
AcDbLine
 10
585.0
 20
-970.0
 30
0.0
 11
585.0
 21
-1050.0
 31
0.0
  0
LINE
  5
43
330
4E3
100
AcDbEntity
  8
HIBINO-BASE
  6
Continuous
 62
     7
100
AcDbLine
 10
485.0
 20
-1050.0
 30
0.0
 11
485.0
 21
-970.0
 31
0.0
  0
TEXT
  5
44
330
4E3
100
AcDbEntity
  8
HIBINO-BASE
 62
     7
100
AcDbText
 10
191.8523200000004
 20
-1027.090826666666
 30
0.0
 40
13.03072916666667
  1
'17.02.
 41
0.7
 11
191.8523200000004
 21
-1014.060097499999
 31
0.0
100
AcDbText
 73
     3
  0
TEXT
  5
45
330
4E3
100
AcDbEntity
  8
HIBINO-BASE
 62
     7
100
AcDbText
 10
145.0
 20
-1033.871546666667
 30
0.0
 40
13.03072916666667
  1
8
 41
0.7
 11
145.0
 21
-1020.8408175
 31
0.0
100
AcDbText
 73
     3
  0
TEXT
  5
46
330
4E3
100
AcDbEntity
  8
HIBINO-BASE
 62
     7
100
AcDbText
 10
397.0464800882772
 20
-1027.090826666666
 30
0.0
 40
13.03072916666667
  1
N.Sasaki
 41
0.7
 11
397.0464800882772
 21
-1014.060097499999
 31
0.0
100
AcDbText
 73
     3
  0
TEXT
  5
47
330
4E3
100
AcDbEntity
  8
HIBINO-BASE
 62
     7
100
AcDbText
 10
36.06666666666679
 20
-1034.192
 30
0.0
 40
26.06145833333333
  1
A4
 41
0.7
 11
36.06666666666679
 21
-1008.130541666667
 31
0.0
100
AcDbText
 73
     3
  0
TEXT
  5
48
330
4E3
100
AcDbEntity
  8
HIBINO-BASE
 62
     7
100
AcDbText
 10
12.66666666666679
 20
-990.9556399999997
 30
0.0
 40
13.03072916666667
  1
PAPER SIZE
 41
0.7
 11
12.66666666666679
 21
-977.9249108333331
 31
0.0
100
AcDbText
 73
     3
  0
TEXT
  5
49
330
4E3
100
AcDbEntity
  8
HIBINO-BASE
 62
     7
100
AcDbText
 10
-657.5279999999998
 20
-1101.2694224
 30
0.0
 40
28.8003534375
  1
Hibino Corporation
 41
0.7
 11
-657.5279999999998
 21
-1072.4690689625
 31
0.0
100
AcDbText
 73
     3
  0
TEXT
  5
4A
330
4E3
100
AcDbEntity
  8
HIBINO-BASE
 62
     7
100
AcDbText
 10
405.54712
 20
-1101.2694224
 30
0.0
 40
28.8003534375
  1
ヒビノ株式会社
 41
0.7
 11
405.54712
 21
-1072.4690689625
 31
0.0
100
AcDbText
 73
     3
  0
LINE
  5
4B
330
4E3
100
AcDbEntity
  8
SPEC
  6
Continuous
 62
     7
100
AcDbLine
 10
-654.9999999999998
 20
950.0000000000001
 30
0.0
 11
685.0
 21
950.0000000000001
 31
0.0
  0
LINE
  5
4C
330
4E3
100
AcDbEntity
  8
SPEC
  6
Continuous
 62
     7
100
AcDbLine
 10
-555.0
 20
920.0
 30
0.0
 11
685.0
 21
920.0
 31
0.0
  0
LINE
  5
4D
330
4E3
100
AcDbEntity
  8
SPEC
  6
Continuous
 62
     7
100
AcDbLine
 10
-654.9999999999998
 20
500.0000000000002
 30
0.0
 11
685.0
 21
500.0000000000002
 31
0.0
  0
LINE
  5
4E
330
4E3
100
AcDbEntity
  8
SPEC
  6
Continuous
 62
     7
100
AcDbLine
 10
-654.9999999999998
 20
530.0000000000003
 30
0.0
 11
685.0
 21
530.0000000000003
 31
0.0
  0
LINE
  5
4F
330
4E3
100
AcDbEntity
  8
SPEC
  6
Continuous
 62
     7
100
AcDbLine
 10
-654.9999999999998
 20
950.0000000000001
 30
0.0
 11
-654.9999999999998
 21
410.0000000000003
 31
0.0
  0
TEXT
  5
50
330
4E3
100
AcDbEntity
  8
SPEC
 62
     7
100
AcDbText
 10
-644.9999999999999
 20
961.14616
 30
0.0
 40
19.54609375
  1
仕様
 41
0.7
 11
-644.9999999999999
 21
980.69225375
 31
0.0
100
AcDbText
 73
     3
  0
LINE
  5
51
330
4E3
100
AcDbEntity
  8
SPEC
  6
Continuous
 62
     7
100
AcDbLine
 10
-395.0
 20
950.0000000000001
 30
0.0
 11
-395.0
 21
410.0000000000003
 31
0.0
  0
LINE
  5
52
330
4E3
100
AcDbEntity
  8
SPEC
  6
Continuous
 62
     7
100
AcDbLine
 10
685.0
 20
950.0000000000001
 30
0.0
 11
685.0
 21
410.0000000000003
 31
0.0
  0
TEXT
  5
53
330
4E3
100
AcDbEntity
  8
SPEC
 62
     7
100
AcDbText
 10
-647.8000000000001
 20
476.3033422222224
 30
0.0
 40
15.20251736111111
  1
付属品
 41
0.7
 11
-647.8000000000001
 21
491.5058595833335
 31
0.0
100
AcDbText
 73
     3
  0
TEXT
  5
54
330
4E3
100
AcDbEntity
  8
SPEC
 62
     7
100
AcDbText
 10
-647.8000000000001
 20
536.3033422222225
 30
0.0
 40
15.20251736111111
  1
寸法(W×H×D)
 41
0.7
 11
-647.8000000000001
 21
551.5058595833336
 31
0.0
100
AcDbText
 73
     3
  0
TEXT
  5
55
330
4E3
100
AcDbEntity
  8
SPEC
 62
     7
100
AcDbText
 10
-647.8000000000001
 20
506.3033422222225
 30
0.0
 40
15.20251736111111
  1
質量
 41
0.7
 11
-647.8000000000001
 21
521.5058595833336
 31
0.0
100
AcDbText
 73
     3
  0
TEXT
  5
56
330
4E3
100
AcDbEntity
  8
SPEC
 62
     7
100
AcDbText
 10
-387.8
 20
536.3033422222225
 30
0.0
 40
15.20251736111111
  1
218×45×304mm(除突起部)
 41
0.7
 11
-387.8
 21
551.5058595833336
 31
0.0
100
AcDbText
 73
     3
  0
TEXT
  5
57
330
4E3
100
AcDbEntity
  8
SPEC
 62
     7
100
AcDbText
 10
-387.8
 20
506.3033422222225
 30
0.0
 40
15.20251736111111
  1
2.0kg
 41
0.7
 11
-387.8
 21
521.5058595833336
 31
0.0
100
AcDbText
 73
     3
  0
TEXT
  5
58
330
4E3
100
AcDbEntity
  8
SPEC
 62
     7
100
AcDbText
 10
-387.8
 20
926.3033422222221
 30
0.0
 40
15.20251736111111
  1
4
 41
0.7
 11
-387.8
 21
941.5058595833331
 31
0.0
100
AcDbText
 73
     3
  0
LINE
  5
59
330
4E3
100
AcDbEntity
  8
SPEC
  6
Continuous
 62
     7
100
AcDbLine
 10
-555.0
 20
860.0
 30
0.0
 11
685.0
 21
860.0
 31
0.0
  0
LINE
  5
5A
330
4E3
100
AcDbEntity
  8
SPEC
  6
Continuous
 62
     7
100
AcDbLine
 10
-555.0
 20
830.0
 30
0.0
 11
685.0
 21
830.0
 31
0.0
  0
LINE
  5
5B
330
4E3
100
AcDbEntity
  8
SPEC
  6
Continuous
 62
     7
100
AcDbLine
 10
-654.9999999999998
 20
800.0000000000001
 30
0.0
 11
685.0
 21
800.0000000000001
 31
0.0
  0
LINE
  5
5C
330
4E3
100
AcDbEntity
  8
SPEC
  6
Continuous
 62
     7
100
AcDbLine
 10
-555.0
 20
770.0000000000003
 30
0.0
 11
685.0
 21
770.0000000000003
 31
0.0
  0
TEXT
  5
5D
330
4E3
100
AcDbEntity
  8
SPEC
 62
     7
100
AcDbText
 10
-387.8
 20
776.3033422222223
 30
0.0
 40
15.20251736111111
  1
1
 41
0.7
 11
-387.8
 21
791.5058595833333
 31
0.0
100
AcDbText
 73
     3
  0
LINE
  5
5E
330
4E3
100
AcDbEntity
  8
SPEC
  6
Continuous
 62
     7
100
AcDbLine
 10
-654.9999999999998
 20
710.0000000000003
 30
0.0
 11
685.0
 21
710.0000000000003
 31
0.0
  0
LINE
  5
5F
330
4E3
100
AcDbEntity
  8
SPEC
  6
Continuous
 62
     7
100
AcDbLine
 10
-654.9999999999998
 20
680.0000000000003
 30
0.0
 11
685.0
 21
680.0000000000003
 31
0.0
  0
LINE
  5
60
330
4E3
100
AcDbEntity
  8
SPEC
  6
Continuous
 62
     7
100
AcDbLine
 10
-654.9999999999998
 20
650.0000000000003
 30
0.0
 11
685.0
 21
650.0000000000003
 31
0.0
  0
LINE
  5
61
330
4E3
100
AcDbEntity
  8
SPEC
  6
Continuous
 62
     7
100
AcDbLine
 10
-654.9999999999998
 20
620.0000000000003
 30
0.0
 11
685.0
 21
620.0000000000003
 31
0.0
  0
LINE
  5
62
330
4E3
100
AcDbEntity
  8
SPEC
  6
Continuous
 62
     7
100
AcDbLine
 10
-654.9999999999998
 20
590.0000000000003
 30
0.0
 11
685.0
 21
590.0000000000003
 31
0.0
  0
LINE
  5
63
330
4E3
100
AcDbEntity
  8
SPEC
  6
Continuous
 62
     7
100
AcDbLine
 10
-654.9999999999998
 20
560.0000000000003
 30
0.0
 11
685.0
 21
560.0000000000003
 31
0.0
  0
TEXT
  5
64
330
4E3
100
AcDbEntity
  8
SPEC
 62
     7
100
AcDbText
 10
-647.8000000000001
 20
926.3033422222221
 30
0.0
 40
15.20251736111111
  1
入力
 41
0.7
 11
-647.8000000000001
 21
941.5058595833331
 31
0.0
100
AcDbText
 73
     3
  0
TEXT
  5
65
330
4E3
100
AcDbEntity
  8
SPEC
 62
     7
100
AcDbText
 10
-547.8
 20
926.3033422222221
 30
0.0
 40
15.20251736111111
  1
チャンネル数
 41
0.7
 11
-547.8
 21
941.5058595833331
 31
0.0
100
AcDbText
 73
     3
  0
TEXT
  5
66
330
4E3
100
AcDbEntity
  8
SPEC
 62
     7
100
AcDbText
 10
-547.8
 20
896.303342222222
 30
0.0
 40
15.20251736111111
  1
端子・形式
 41
0.7
 11
-547.8
 21
911.5058595833332
 31
0.0
100
AcDbText
 73
     3
  0
TEXT
  5
67
330
4E3
100
AcDbEntity
  8
SPEC
 62
     7
100
AcDbText
 10
-547.8
 20
836.3033422222221
 30
0.0
 40
15.20251736111111
  1
インピーダンス
 41
0.7
 11
-547.8
 21
851.5058595833332
 31
0.0
100
AcDbText
 73
     3
  0
TEXT
  5
68
330
4E3
100
AcDbEntity
  8
SPEC
 62
     7
100
AcDbText
 10
-387.8
 20
896.303342222222
 30
0.0
 40
15.20251736111111
  1
ch1:ユーロブロック(バランス)
 41
0.7
 11
-387.8
 21
911.5058595833332
 31
0.0
100
AcDbText
 73
     3
  0
TEXT
  5
69
330
4E3
100
AcDbEntity
  8
SPEC
 62
     7
100
AcDbText
 10
-387.8
 20
866.3033422222222
 30
0.0
 40
15.20251736111111
  1
ch2～4:ユーロブロック(バランス)、RCA(アンバランス)
 41
0.7
 11
-387.8
 21
881.5058595833331
 31
0.0
100
AcDbText
 73
     3
  0
TEXT
  5
6A
330
4E3
100
AcDbEntity
  8
SPEC
 62
     7
100
AcDbText
 10
-387.8
 20
836.3033422222221
 30
0.0
 40
15.20251736111111
  1
ユーロブロック:400Ω(マイク)、20kΩ(ライン)、RCA:50kΩ
 41
0.7
 11
-387.8
 21
851.5058595833332
 31
0.0
100
AcDbText
 73
     3
  0
TEXT
  5
6B
330
4E3
100
AcDbEntity
  8
SPEC
 62
     7
100
AcDbText
 10
-547.8
 20
806.3033422222224
 30
0.0
 40
15.20251736111111
  1
ファンタム電源
 41
0.7
 11
-547.8
 21
821.5058595833333
 31
0.0
100
AcDbText
 73
     3
  0
TEXT
  5
6C
330
4E3
100
AcDbEntity
  8
SPEC
 62
     7
100
AcDbText
 10
-387.8
 20
806.3033422222224
 30
0.0
 40
15.20251736111111
  1
27V(ユーロブロックのみ)^I
 41
0.7
 11
-387.8
 21
821.5058595833333
 31
0.0
100
AcDbText
 73
     3
  0
TEXT
  5
6D
330
4E3
100
AcDbEntity
  8
SPEC
 62
     7
100
AcDbText
 10
-647.8000000000001
 20
776.3033422222223
 30
0.0
 40
15.20251736111111
  1
出力
 41
0.7
 11
-647.8000000000001
 21
791.5058595833333
 31
0.0
100
AcDbText
 73
     3
  0
TEXT
  5
6E
330
4E3
100
AcDbEntity
  8
SPEC
 62
     7
100
AcDbText
 10
-547.8
 20
776.3033422222223
 30
0.0
 40
15.20251736111111
  1
チャンネル数
 41
0.7
 11
-547.8
 21
791.5058595833333
 31
0.0
100
AcDbText
 73
     3
  0
TEXT
  5
6F
330
4E3
100
AcDbEntity
  8
SPEC
 62
     7
100
AcDbText
 10
-547.8
 20
746.3033422222225
 30
0.0
 40
15.20251736111111
  1
端子
 41
0.7
 11
-547.8
 21
761.5058595833336
 31
0.0
100
AcDbText
 73
     3
  0
TEXT
  5
70
330
4E3
100
AcDbEntity
  8
SPEC
 62
     7
100
AcDbText
 10
-387.8
 20
746.3033422222225
 30
0.0
 40
15.20251736111111
  1
ユーロブロック
 41
0.7
 11
-387.8
 21
761.5058595833336
 31
0.0
100
AcDbText
 73
     3
  0
TEXT
  5
71
330
4E3
100
AcDbEntity
  8
SPEC
 62
     7
100
AcDbText
 10
-647.8000000000001
 20
716.3033422222225
 30
0.0
 40
15.20251736111111
  1
周波数特性(±1dB)
 41
0.7
 11
-647.8000000000001
 21
731.5058595833336
 31
0.0
100
AcDbText
 73
     3
  0
TEXT
  5
72
330
4E3
100
AcDbEntity
  8
SPEC
 62
     7
100
AcDbText
 10
-387.8
 20
716.3033422222225
 30
0.0
 40
15.20251736111111
  1
20Hz～20kHz
 41
0.7
 11
-387.8
 21
731.5058595833336
 31
0.0
100
AcDbText
 73
     3
  0
LINE
  5
73
330
4E3
100
AcDbEntity
  8
SPEC
  6
Continuous
 62
     7
100
AcDbLine
 10
-654.9999999999998
 20
740.0000000000003
 30
0.0
 11
685.0
 21
740.0000000000003
 31
0.0
  0
LINE
  5
74
330
4E3
100
AcDbEntity
  8
SPEC
  6
Continuous
 62
     7
100
AcDbLine
 10
-555.0
 20
950.0000000000001
 30
0.0
 11
-555.0
 21
740.0000000000003
 31
0.0
  0
TEXT
  5
75
330
4E3
100
AcDbEntity
  8
SPEC
 62
     7
100
AcDbText
 10
-387.8
 20
566.3033422222225
 30
0.0
 40
15.20251736111111
  1
6W^I
 41
0.7
 11
-387.8
 21
581.5058595833336
 31
0.0
100
AcDbText
 73
     3
  0
TEXT
  5
76
330
4E3
100
AcDbEntity
  8
SPEC
 62
     7
100
AcDbText
 10
-647.8000000000001
 20
686.3033422222225
 30
0.0
 40
15.20251736111111
  1
SN比
 41
0.7
 11
-647.8000000000001
 21
701.5058595833336
 31
0.0
100
AcDbText
 73
     3
  0
TEXT
  5
77
330
4E3
100
AcDbEntity
  8
SPEC
 62
     7
100
AcDbText
 10
-387.8
 20
686.3033422222225
 30
0.0
 40
15.20251736111111
  1
90dB以上(Aウェイト)
 41
0.7
 11
-387.8
 21
701.5058595833336
 31
0.0
100
AcDbText
 73
     3
  0
TEXT
  5
78
330
4E3
100
AcDbEntity
  8
SPEC
 62
     7
100
AcDbText
 10
-647.8000000000001
 20
656.3033422222225
 30
0.0
 40
15.20251736111111
  1
THD
 41
0.7
 11
-647.8000000000001
 21
671.5058595833336
 31
0.0
100
AcDbText
 73
     3
  0
TEXT
  5
79
330
4E3
100
AcDbEntity
  8
SPEC
 62
     7
100
AcDbText
 10
-387.8
 20
656.3033422222225
 30
0.0
 40
15.20251736111111
  1
0.05%%%
 41
0.7
 11
-387.8
 21
671.5058595833336
 31
0.0
100
AcDbText
 73
     3
  0
TEXT
  5
7A
330
4E3
100
AcDbEntity
  8
SPEC
 62
     7
100
AcDbText
 10
-647.8000000000001
 20
626.3033422222226
 30
0.0
 40
15.20251736111111
  1
インジケーター
 41
0.7
 11
-647.8000000000001
 21
641.5058595833336
 31
0.0
100
AcDbText
 73
     3
  0
TEXT
  5
7B
330
4E3
100
AcDbEntity
  8
SPEC
 62
     7
100
AcDbText
 10
-387.8
 20
626.3033422222226
 30
0.0
 40
15.20251736111111
  1
Signal(入力/出力)、Clip(出力)、Power
 41
0.7
 11
-387.8
 21
641.5058595833336
 31
0.0
100
AcDbText
 73
     3
  0
TEXT
  5
7C
330
4E3
100
AcDbEntity
  8
SPEC
 62
     7
100
AcDbText
 10
-647.8000000000001
 20
596.3033422222225
 30
0.0
 40
15.20251736111111
  1
電源
 41
0.7
 11
-647.8000000000001
 21
611.5058595833336
 31
0.0
100
AcDbText
 73
     3
  0
TEXT
  5
7D
330
4E3
100
AcDbEntity
  8
SPEC
 62
     7
100
AcDbText
 10
-387.8
 20
596.3033422222225
 30
0.0
 40
15.20251736111111
  1
AC100V、50/60Hz
 41
0.7
 11
-387.8
 21
611.5058595833336
 31
0.0
100
AcDbText
 73
     3
  0
TEXT
  5
7E
330
4E3
100
AcDbEntity
  8
SPEC
 62
     7
100
AcDbText
 10
-647.8000000000001
 20
566.3033422222225
 30
0.0
 40
15.20251736111111
  1
消費電力
 41
0.7
 11
-647.8000000000001
 21
581.5058595833336
 31
0.0
100
AcDbText
 73
     3
  0
TEXT
  5
7F
330
4E3
100
AcDbEntity
  8
SPEC
 62
     7
100
AcDbText
 10
-387.8
 20
476.3033422222224
 30
0.0
 40
15.20251736111111
  1
3ピン・ユーロブロックコネクタ ー×4、5ピン・ユーロブロックコネクタ ー、フロントアングルブラケット、
 41
0.7
 11
-387.8
 21
491.5058595833335
 31
0.0
100
AcDbText
 73
     3
  0
TEXT
  5
80
330
4E3
100
AcDbEntity
  8
SPEC
 62
     7
100
AcDbText
 10
-387.8
 20
416.3033422222224
 30
0.0
 40
15.20251736111111
  1
ゴム足×4(1シート)、電源コード、和文取扱説明書
 41
0.7
 11
-387.8
 21
431.5058595833336
 31
0.0
100
AcDbText
 73
     3
  0
TEXT
  5
81
330
4E3
100
AcDbEntity
  8
SPEC
 62
     7
100
AcDbText
 10
-387.8
 20
446.3033422222224
 30
0.0
 40
15.20251736111111
  1
ロングアングルブラケット、フラットブラケット、金具固定ねじ×10、ラックマウントねじ×5
 41
0.7
 11
-387.8
 21
461.5058595833335
 31
0.0
100
AcDbText
 73
     3
  0
LINE
  5
82
330
4E3
100
AcDbEntity
  8
SPEC
  6
Continuous
 62
     7
100
AcDbLine
 10
-654.9999999999998
 20
410.0000000000003
 30
0.0
 11
685.0
 21
410.0000000000003
 31
0.0
  0
LINE
  5
83
330
4E3
100
AcDbEntity
  8
DIMNSIONS
  6
Continuous
 62
     7
100
AcDbLine
 10
-508.0
 20
-321.0
 30
0.0
 11
-541.0
 21
-321.0
 31
0.0
  0
LINE
  5
84
330
4E3
100
AcDbEntity
  8
DIMNSIONS
  6
Continuous
 62
     7
100
AcDbLine
 10
-508.0
 20
-625.0
 30
0.0
 11
-541.0
 21
-625.0
 31
0.0
  0
LINE
  5
85
330
4E3
100
AcDbEntity
  8
DIMNSIONS
  6
Continuous
 62
     7
100
AcDbLine
 10
-525.0
 20
-321.0
 30
0.0
 11
-525.0
 21
-625.0
 31
0.0
  0
LINE
  5
86
330
4E3
100
AcDbEntity
  8
DIMNSIONS
  6
Continuous
 62
     7
100
AcDbLine
 10
-525.0
 20
-321.0
 30
0.0
 11
-519.639681638798
 21
-341.00498046875
 31
0.0
  0
LINE
  5
87
330
4E3
100
AcDbEntity
  8
DIMNSIONS
  6
Continuous
 62
     7
100
AcDbLine
 10
-525.0
 20
-321.0
 30
0.0
 11
-530.3603183612019
 21
-341.00498046875
 31
0.0
  0
LINE
  5
88
330
4E3
100
AcDbEntity
  8
DIMNSIONS
  6
Continuous
 62
     7
100
AcDbLine
 10
-525.0
 20
-625.0
 30
0.0
 11
-530.3603183612019
 21
-604.99501953125
 31
0.0
  0
LINE
  5
89
330
4E3
100
AcDbEntity
  8
DIMNSIONS
  6
Continuous
 62
     7
100
AcDbLine
 10
-525.0
 20
-625.0
 30
0.0
 11
-519.639681638798
 21
-604.99501953125
 31
0.0
  0
TEXT
  5
8A
330
4E3
100
AcDbEntity
  8
DIMNSIONS
 62
     7
100
AcDbText
 10
-532.9511111111109
 20
-494.1666666666665
 30
0.0
 40
21.71788194444445
  1
304
 50
90.0
 41
0.7
 11
-554.6689930555555
 21
-494.1666666666665
 31
0.0
100
AcDbText
 73
     3
  0
LINE
  5
8B
330
4E3
100
AcDbEntity
  8
DIMNSIONS
  6
Continuous
 62
     7
100
AcDbLine
 10
-500.0
 20
-758.0
 30
0.0
 11
-500.0
 21
-816.0
 31
0.0
  0
LINE
  5
8C
330
4E3
100
AcDbEntity
  8
DIMNSIONS
  6
Continuous
 62
     7
100
AcDbLine
 10
-282.0
 20
-758.0
 30
0.0
 11
-282.0
 21
-816.0
 31
0.0
  0
LINE
  5
8D
330
4E3
100
AcDbEntity
  8
DIMNSIONS
  6
Continuous
 62
     7
100
AcDbLine
 10
-500.0
 20
-800.0
 30
0.0
 11
-282.0
 21
-800.0
 31
0.0
  0
LINE
  5
8E
330
4E3
100
AcDbEntity
  8
DIMNSIONS
  6
Continuous
 62
     7
100
AcDbLine
 10
-500.0
 20
-800.0
 30
0.0
 11
-479.99501953125
 21
-794.639681638798
 31
0.0
  0
LINE
  5
8F
330
4E3
100
AcDbEntity
  8
DIMNSIONS
  6
Continuous
 62
     7
100
AcDbLine
 10
-500.0
 20
-800.0
 30
0.0
 11
-479.99501953125
 21
-805.360318361202
 31
0.0
  0
LINE
  5
90
330
4E3
100
AcDbEntity
  8
DIMNSIONS
  6
Continuous
 62
     7
100
AcDbLine
 10
-282.0
 20
-800.0
 30
0.0
 11
-302.00498046875
 21
-805.360318361202
 31
0.0
  0
LINE
  5
91
330
4E3
100
AcDbEntity
  8
DIMNSIONS
  6
Continuous
 62
     7
100
AcDbLine
 10
-282.0
 20
-800.0
 30
0.0
 11
-302.00498046875
 21
-794.639681638798
 31
0.0
  0
TEXT
  5
92
330
4E3
100
AcDbEntity
  8
DIMNSIONS
 62
     7
100
AcDbText
 10
-412.1666666666666
 20
-792.0488888888889
 30
0.0
 40
21.71788194444445
  1
218
 41
0.7
 11
-412.1666666666666
 21
-770.3310069444444
 31
0.0
100
AcDbText
 73
     3
  0
LINE
  5
93
330
4E3
100
AcDbEntity
  8
DIMNSIONS
  6
Continuous
 62
     7
100
AcDbLine
 10
-506.8000000000001
 20
-705.4999999999999
 30
0.0
 11
-541.0
 21
-705.4999999999999
 31
0.0
  0
LINE
  5
94
330
4E3
100
AcDbEntity
  8
DIMNSIONS
  6
Continuous
 62
     7
100
AcDbLine
 10
-508.0
 20
-750.0
 30
0.0
 11
-541.0
 21
-750.0
 31
0.0
  0
LINE
  5
95
330
4E3
100
AcDbEntity
  8
DIMNSIONS
  6
Continuous
 62
     7
100
AcDbLine
 10
-525.0
 20
-750.0
 30
0.0
 11
-525.0
 21
-705.4999999999999
 31
0.0
  0
LINE
  5
96
330
4E3
100
AcDbEntity
  8
DIMNSIONS
  6
Continuous
 62
     7
100
AcDbLine
 10
-525.0
 20
-705.4999999999999
 30
0.0
 11
-525.0
 21
-677.5
 31
0.0
  0
LINE
  5
97
330
4E3
100
AcDbEntity
  8
DIMNSIONS
  6
Continuous
 62
     7
100
AcDbLine
 10
-525.0
 20
-705.4999999999999
 30
0.0
 11
-530.3603183612019
 21
-685.49501953125
 31
0.0
  0
LINE
  5
98
330
4E3
100
AcDbEntity
  8
DIMNSIONS
  6
Continuous
 62
     7
100
AcDbLine
 10
-525.0
 20
-705.4999999999999
 30
0.0
 11
-519.639681638798
 21
-685.49501953125
 31
0.0
  0
LINE
  5
99
330
4E3
100
AcDbEntity
  8
DIMNSIONS
  6
Continuous
 62
     7
100
AcDbLine
 10
-525.0
 20
-750.0
 30
0.0
 11
-525.0
 21
-778.0
 31
0.0
  0
LINE
  5
9A
330
4E3
100
AcDbEntity
  8
DIMNSIONS
  6
Continuous
 62
     7
100
AcDbLine
 10
-525.0
 20
-750.0
 30
0.0
 11
-519.639681638798
 21
-770.0049804687502
 31
0.0
  0
LINE
  5
9B
330
4E3
100
AcDbEntity
  8
DIMNSIONS
  6
Continuous
 62
     7
100
AcDbLine
 10
-525.0
 20
-750.0
 30
0.0
 11
-530.3603183612019
 21
-770.0049804687502
 31
0.0
  0
TEXT
  5
9C
330
4E3
100
AcDbEntity
  8
DIMNSIONS
 62
     7
100
AcDbText
 10
-548.9511111111109
 20
-755.9722222222221
 30
0.0
 40
21.71788194444445
  1
44.5
 50
90.0
 41
0.7
 11
-570.6689930555554
 21
-755.9722222222221
 31
0.0
100
AcDbText
 73
     3
  0
LINE
  5
9D
330
4E3
100
AcDbEntity
  8
DIMNSIONS
  6
Continuous
 62
     7
100
AcDbLine
 10
-330.0
 20
169.5
 30
0.0
 11
-366.0
 21
169.5
 31
0.0
  0
LINE
  5
9E
330
4E3
100
AcDbEntity
  8
DIMNSIONS
  6
Continuous
 62
     7
100
AcDbLine
 10
-330.0
 20
125.0
 30
0.0
 11
-366.0
 21
125.0
 31
0.0
  0
LINE
  5
9F
330
4E3
100
AcDbEntity
  8
DIMNSIONS
  6
Continuous
 62
     7
100
AcDbLine
 10
-350.0
 20
125.0
 30
0.0
 11
-350.0
 21
169.5
 31
0.0
  0
LINE
  5
A0
330
4E3
100
AcDbEntity
  8
DIMNSIONS
  6
Continuous
 62
     7
100
AcDbLine
 10
-350.0
 20
169.5
 30
0.0
 11
-350.0
 21
197.5
 31
0.0
  0
LINE
  5
A1
330
4E3
100
AcDbEntity
  8
DIMNSIONS
  6
Continuous
 62
     7
100
AcDbLine
 10
-350.0
 20
169.5
 30
0.0
 11
-355.360318361202
 21
189.50498046875
 31
0.0
  0
LINE
  5
A2
330
4E3
100
AcDbEntity
  8
DIMNSIONS
  6
Continuous
 62
     7
100
AcDbLine
 10
-350.0
 20
169.5
 30
0.0
 11
-344.639681638798
 21
189.50498046875
 31
0.0
  0
LINE
  5
A3
330
4E3
100
AcDbEntity
  8
DIMNSIONS
  6
Continuous
 62
     7
100
AcDbLine
 10
-350.0
 20
125.0
 30
0.0
 11
-350.0
 21
97.0
 31
0.0
  0
LINE
  5
A4
330
4E3
100
AcDbEntity
  8
DIMNSIONS
  6
Continuous
 62
     7
100
AcDbLine
 10
-350.0
 20
125.0
 30
0.0
 11
-344.639681638798
 21
104.99501953125
 31
0.0
  0
LINE
  5
A5
330
4E3
100
AcDbEntity
  8
DIMNSIONS
  6
Continuous
 62
     7
100
AcDbLine
 10
-350.0
 20
125.0
 30
0.0
 11
-355.360318361202
 21
104.99501953125
 31
0.0
  0
TEXT
  5
A6
330
4E3
100
AcDbEntity
  8
DIMNSIONS
 62
     7
100
AcDbText
 10
-373.9511111111112
 20
119.0277777777777
 30
0.0
 40
21.71788194444445
  1
44.5
 50
90.0
 41
0.7
 11
-395.6689930555556
 21
119.0277777777777
 31
0.0
100
AcDbText
 73
     3
  0
LINE
  5
A7
330
4E3
100
AcDbEntity
  8
DIMNSIONS
  6
Continuous
 62
     7
100
AcDbLine
 10
-323.0
 20
118.0
 30
0.0
 11
-323.0
 21
71.5
 31
0.0
  0
LINE
  5
A8
330
4E3
100
AcDbEntity
  8
DIMNSIONS
  6
Continuous
 62
     7
100
AcDbLine
 10
-300.0
 20
117.0
 30
0.0
 11
-300.0
 21
71.5
 31
0.0
  0
LINE
  5
A9
330
4E3
100
AcDbEntity
  8
DIMNSIONS
  6
Continuous
 62
     7
100
AcDbLine
 10
-300.0
 20
87.5
 30
0.0
 11
-323.0
 21
87.5
 31
0.0
  0
LINE
  5
AA
330
4E3
100
AcDbEntity
  8
DIMNSIONS
  6
Continuous
 62
     7
100
AcDbLine
 10
-323.0
 20
87.5
 30
0.0
 11
-351.0
 21
87.5
 31
0.0
  0
LINE
  5
AB
330
4E3
100
AcDbEntity
  8
DIMNSIONS
  6
Continuous
 62
     7
100
AcDbLine
 10
-323.0
 20
87.5
 30
0.0
 11
-343.00498046875
 21
82.13968163879805
 31
0.0
  0
LINE
  5
AC
330
4E3
100
AcDbEntity
  8
DIMNSIONS
  6
Continuous
 62
     7
100
AcDbLine
 10
-323.0
 20
87.5
 30
0.0
 11
-343.00498046875
 21
92.86031836120194
 31
0.0
  0
LINE
  5
AD
330
4E3
100
AcDbEntity
  8
DIMNSIONS
  6
Continuous
 62
     7
100
AcDbLine
 10
-300.0
 20
87.5
 30
0.0
 11
-231.0555555555556
 21
87.5
 31
0.0
  0
LINE
  5
AE
330
4E3
100
AcDbEntity
  8
DIMNSIONS
  6
Continuous
 62
     7
100
AcDbLine
 10
-300.0
 20
87.5
 30
0.0
 11
-279.99501953125
 21
92.86031836120194
 31
0.0
  0
LINE
  5
AF
330
4E3
100
AcDbEntity
  8
DIMNSIONS
  6
Continuous
 62
     7
100
AcDbLine
 10
-300.0
 20
87.5
 30
0.0
 11
-279.99501953125
 21
82.13968163879805
 31
0.0
  0
TEXT
  5
B0
330
4E3
100
AcDbEntity
  8
DIMNSIONS
 62
     7
100
AcDbText
 10
-287.5
 20
95.45111111111109
 30
0.0
 40
21.71788194444445
  1
23.0
 41
0.7
 11
-287.5
 21
117.1689930555555
 31
0.0
100
AcDbText
 73
     3
  0
LINE
  5
B1
330
4E3
100
AcDbEntity
  8
DIMNSIONS
  6
Continuous
 62
     7
100
AcDbLine
 10
442.0
 20
175.0
 30
0.0
 11
406.2871870788978
 21
175.0
 31
0.0
  0
LINE
  5
B2
330
4E3
100
AcDbEntity
  8
DIMNSIONS
  6
Continuous
 62
     7
100
AcDbLine
 10
442.0
 20
125.0
 30
0.0
 11
406.2871870788978
 21
125.0
 31
0.0
  0
LINE
  5
B3
330
4E3
100
AcDbEntity
  8
DIMNSIONS
  6
Continuous
 62
     7
100
AcDbLine
 10
422.2871870788977
 20
175.0
 30
0.0
 11
422.2871870788977
 21
125.0
 31
0.0
  0
LINE
  5
B4
330
4E3
100
AcDbEntity
  8
DIMNSIONS
  6
Continuous
 62
     7
100
AcDbLine
 10
422.2871870788977
 20
175.0
 30
0.0
 11
427.6475054400999
 21
154.99501953125
 31
0.0
  0
LINE
  5
B5
330
4E3
100
AcDbEntity
  8
DIMNSIONS
  6
Continuous
 62
     7
100
AcDbLine
 10
422.2871870788977
 20
175.0
 30
0.0
 11
416.9268687176959
 21
154.99501953125
 31
0.0
  0
LINE
  5
B6
330
4E3
100
AcDbEntity
  8
DIMNSIONS
  6
Continuous
 62
     7
100
AcDbLine
 10
422.2871870788977
 20
125.0
 30
0.0
 11
416.9268687176959
 21
145.00498046875
 31
0.0
  0
LINE
  5
B7
330
4E3
100
AcDbEntity
  8
DIMNSIONS
  6
Continuous
 62
     7
100
AcDbLine
 10
422.2871870788977
 20
125.0
 30
0.0
 11
427.6475054400999
 21
145.00498046875
 31
0.0
  0
TEXT
  5
B8
330
4E3
100
AcDbEntity
  8
DIMNSIONS
 62
     7
100
AcDbText
 10
398.3360759677868
 20
121.7777777777778
 30
0.0
 40
21.71788194444445
  1
50.0
 50
90.0
 41
0.7
 11
376.6181940233423
 21
121.7777777777778
 31
0.0
100
AcDbText
 73
     3
  0
LINE
  5
B9
330
4E3
100
AcDbEntity
  8
DIMNSIONS
  6
Continuous
 62
     7
100
AcDbLine
 10
450.0
 20
117.0
 30
0.0
 11
450.0
 21
71.5
 31
0.0
  0
LINE
  5
BA
330
4E3
100
AcDbEntity
  8
DIMNSIONS
  6
Continuous
 62
     7
100
AcDbLine
 10
575.0
 20
117.0
 30
0.0
 11
575.0
 21
71.5
 31
0.0
  0
LINE
  5
BB
330
4E3
100
AcDbEntity
  8
DIMNSIONS
  6
Continuous
 62
     7
100
AcDbLine
 10
450.0
 20
87.5
 30
0.0
 11
575.0
 21
87.5
 31
0.0
  0
LINE
  5
BC
330
4E3
100
AcDbEntity
  8
DIMNSIONS
  6
Continuous
 62
     7
100
AcDbLine
 10
450.0
 20
87.5
 30
0.0
 11
470.0049804687499
 21
92.86031836120194
 31
0.0
  0
LINE
  5
BD
330
4E3
100
AcDbEntity
  8
DIMNSIONS
  6
Continuous
 62
     7
100
AcDbLine
 10
450.0
 20
87.5
 30
0.0
 11
470.0049804687499
 21
82.13968163879805
 31
0.0
  0
LINE
  5
BE
330
4E3
100
AcDbEntity
  8
DIMNSIONS
  6
Continuous
 62
     7
100
AcDbLine
 10
575.0
 20
87.5
 30
0.0
 11
554.99501953125
 21
82.13968163879805
 31
0.0
  0
LINE
  5
BF
330
4E3
100
AcDbEntity
  8
DIMNSIONS
  6
Continuous
 62
     7
100
AcDbLine
 10
575.0
 20
87.5
 30
0.0
 11
554.99501953125
 21
92.86031836120194
 31
0.0
  0
TEXT
  5
C0
330
4E3
100
AcDbEntity
  8
DIMNSIONS
 62
     7
100
AcDbText
 10
491.3333333333333
 20
95.45111111111109
 30
0.0
 40
21.71788194444445
  1
125
 41
0.7
 11
491.3333333333333
 21
117.1689930555555
 31
0.0
100
AcDbText
 73
     3
  0
LINE
  5
C1
330
4E3
100
AcDbEntity
  8
DIMNSIONS
  6
Continuous
 62
     7
100
AcDbLine
 10
-331.0
 20
237.5
 30
0.0
 11
-366.0
 21
237.5
 31
0.0
  0
LINE
  5
C2
330
4E3
100
AcDbEntity
  8
DIMNSIONS
  6
Continuous
 62
     7
100
AcDbLine
 10
-310.3000000000002
 20
257.8
 30
0.0
 11
-366.0
 21
257.8
 31
0.0
  0
LINE
  5
C3
330
4E3
100
AcDbEntity
  8
DIMNSIONS
  6
Continuous
 62
     7
100
AcDbLine
 10
-350.0
 20
257.8
 30
0.0
 11
-350.0
 21
237.5
 31
0.0
  0
LINE
  5
C4
330
4E3
100
AcDbEntity
  8
DIMNSIONS
  6
Continuous
 62
     7
100
AcDbLine
 10
-350.0
 20
237.5
 30
0.0
 11
-350.0
 21
209.5
 31
0.0
  0
LINE
  5
C5
330
4E3
100
AcDbEntity
  8
DIMNSIONS
  6
Continuous
 62
     7
100
AcDbLine
 10
-350.0
 20
237.5
 30
0.0
 11
-344.639681638798
 21
217.49501953125
 31
0.0
  0
LINE
  5
C6
330
4E3
100
AcDbEntity
  8
DIMNSIONS
  6
Continuous
 62
     7
100
AcDbLine
 10
-350.0
 20
237.5
 30
0.0
 11
-355.360318361202
 21
217.49501953125
 31
0.0
  0
LINE
  5
C7
330
4E3
100
AcDbEntity
  8
DIMNSIONS
  6
Continuous
 62
     7
100
AcDbLine
 10
-350.0
 20
257.8
 30
0.0
 11
-350.0
 21
285.8
 31
0.0
  0
LINE
  5
C8
330
4E3
100
AcDbEntity
  8
DIMNSIONS
  6
Continuous
 62
     7
100
AcDbLine
 10
-350.0
 20
257.8
 30
0.0
 11
-355.360318361202
 21
277.80498046875
 31
0.0
  0
LINE
  5
C9
330
4E3
100
AcDbEntity
  8
DIMNSIONS
  6
Continuous
 62
     7
100
AcDbLine
 10
-350.0
 20
257.8
 30
0.0
 11
-344.639681638798
 21
277.80498046875
 31
0.0
  0
TEXT
  5
CA
330
4E3
100
AcDbEntity
  8
DIMNSIONS
 62
     7
100
AcDbText
 10
-373.9511111111112
 20
219.4277777777777
 30
0.0
 40
21.71788194444445
  1
20.3
 50
90.0
 41
0.7
 11
-395.6689930555556
 21
219.4277777777777
 31
0.0
100
AcDbText
 73
     3
  0
LINE
  5
CB
330
4E3
100
AcDbEntity
  8
DIMNSIONS
  6
Continuous
 62
     7
100
AcDbLine
 10
-508.0
 20
-321.0
 30
0.0
 11
-541.0
 21
-321.0
 31
0.0
  0
LINE
  5
CC
330
4E3
100
AcDbEntity
  8
DIMNSIONS
  6
Continuous
 62
     7
100
AcDbLine
 10
-500.0500000000001
 20
-314.5
 30
0.0
 11
-541.0
 21
-314.5
 31
0.0
  0
LINE
  5
CD
330
4E3
100
AcDbEntity
  8
DIMNSIONS
  6
Continuous
 62
     7
100
AcDbLine
 10
-525.0
 20
-314.5
 30
0.0
 11
-525.0
 21
-321.0
 31
0.0
  0
LINE
  5
CE
330
4E3
100
AcDbEntity
  8
DIMNSIONS
  6
Continuous
 62
     7
100
AcDbLine
 10
-525.0
 20
-321.0
 30
0.0
 11
-525.0
 21
-349.0
 31
0.0
  0
LINE
  5
CF
330
4E3
100
AcDbEntity
  8
DIMNSIONS
  6
Continuous
 62
     7
100
AcDbLine
 10
-525.0
 20
-321.0
 30
0.0
 11
-519.639681638798
 21
-341.00498046875
 31
0.0
  0
LINE
  5
D0
330
4E3
100
AcDbEntity
  8
DIMNSIONS
  6
Continuous
 62
     7
100
AcDbLine
 10
-525.0
 20
-321.0
 30
0.0
 11
-530.3603183612019
 21
-341.00498046875
 31
0.0
  0
LINE
  5
D1
330
4E3
100
AcDbEntity
  8
DIMNSIONS
  6
Continuous
 62
     7
100
AcDbLine
 10
-525.0
 20
-314.5
 30
0.0
 11
-525.0
 21
-257.6666666666667
 31
0.0
  0
LINE
  5
D2
330
4E3
100
AcDbEntity
  8
DIMNSIONS
  6
Continuous
 62
     7
100
AcDbLine
 10
-525.0
 20
-314.5
 30
0.0
 11
-530.3603183612019
 21
-294.49501953125
 31
0.0
  0
LINE
  5
D3
330
4E3
100
AcDbEntity
  8
DIMNSIONS
  6
Continuous
 62
     7
100
AcDbLine
 10
-525.0
 20
-314.5
 30
0.0
 11
-519.639681638798
 21
-294.49501953125
 31
0.0
  0
TEXT
  5
D4
330
4E3
100
AcDbEntity
  8
DIMNSIONS
 62
     7
100
AcDbText
 10
-532.9511111111109
 20
-300.0
 30
0.0
 40
21.71788194444445
  1
6.5
 50
90.0
 41
0.7
 11
-554.6689930555555
 21
-300.0
 31
0.0
100
AcDbText
 73
     3
  0
LINE
  5
D5
330
4E3
100
AcDbEntity
  8
DIMNSIONS
  6
Continuous
 62
     7
100
AcDbLine
 10
-508.0
 20
-625.0
 30
0.0
 11
-541.0
 21
-625.0
 31
0.0
  0
LINE
  5
D6
330
4E3
100
AcDbEntity
  8
DIMNSIONS
  6
Continuous
 62
     7
100
AcDbLine
 10
-358.0
 20
-636.5
 30
0.0
 11
-541.0
 21
-636.5
 31
0.0
  0
LINE
  5
D7
330
4E3
100
AcDbEntity
  8
DIMNSIONS
  6
Continuous
 62
     7
100
AcDbLine
 10
-525.0
 20
-636.5
 30
0.0
 11
-525.0
 21
-625.0
 31
0.0
  0
LINE
  5
D8
330
4E3
100
AcDbEntity
  8
DIMNSIONS
  6
Continuous
 62
     7
100
AcDbLine
 10
-525.0
 20
-625.0
 30
0.0
 11
-525.0
 21
-597.0
 31
0.0
  0
LINE
  5
D9
330
4E3
100
AcDbEntity
  8
DIMNSIONS
  6
Continuous
 62
     7
100
AcDbLine
 10
-525.0
 20
-625.0
 30
0.0
 11
-530.3603183612019
 21
-604.99501953125
 31
0.0
  0
LINE
  5
DA
330
4E3
100
AcDbEntity
  8
DIMNSIONS
  6
Continuous
 62
     7
100
AcDbLine
 10
-525.0
 20
-625.0
 30
0.0
 11
-519.639681638798
 21
-604.99501953125
 31
0.0
  0
LINE
  5
DB
330
4E3
100
AcDbEntity
  8
DIMNSIONS
  6
Continuous
 62
     7
100
AcDbLine
 10
-525.0
 20
-636.5
 30
0.0
 11
-525.0
 21
-664.5
 31
0.0
  0
LINE
  5
DC
330
4E3
100
AcDbEntity
  8
DIMNSIONS
  6
Continuous
 62
     7
100
AcDbLine
 10
-525.0
 20
-636.5
 30
0.0
 11
-519.639681638798
 21
-656.5049804687499
 31
0.0
  0
LINE
  5
DD
330
4E3
100
AcDbEntity
  8
DIMNSIONS
  6
Continuous
 62
     7
100
AcDbLine
 10
-525.0
 20
-636.5
 30
0.0
 11
-530.3603183612019
 21
-656.5049804687499
 31
0.0
  0
TEXT
  5
DE
330
4E3
100
AcDbEntity
  8
DIMNSIONS
 62
     7
100
AcDbText
 10
-548.9511111111109
 20
-658.9722222222222
 30
0.0
 40
21.71788194444445
  1
11.5
 50
90.0
 41
0.7
 11
-570.6689930555554
 21
-658.9722222222222
 31
0.0
100
AcDbText
 73
     3
  0
LINE
  5
DF
330
4E3
100
AcDbEntity
  8
DIMNSIONS
  6
Continuous
 62
     7
100
AcDbLine
 10
612.5
 20
117.0
 30
0.0
 11
612.5
 21
71.5
 31
0.0
  0
LINE
  5
E0
330
4E3
100
AcDbEntity
  8
DIMNSIONS
  6
Continuous
 62
     7
100
AcDbLine
 10
614.0999999999994
 20
117.0
 30
0.0
 11
614.0999999999994
 21
71.5
 31
0.0
  0
LINE
  5
E1
330
4E3
100
AcDbEntity
  8
DIMNSIONS
  6
Continuous
 62
     7
100
AcDbLine
 10
614.0999999999994
 20
87.5
 30
0.0
 11
612.5
 21
87.5
 31
0.0
  0
LINE
  5
E2
330
4E3
100
AcDbEntity
  8
DIMNSIONS
  6
Continuous
 62
     7
100
AcDbLine
 10
612.5
 20
87.5
 30
0.0
 11
584.4999999999999
 21
87.5
 31
0.0
  0
LINE
  5
E3
330
4E3
100
AcDbEntity
  8
DIMNSIONS
  6
Continuous
 62
     7
100
AcDbLine
 10
612.5
 20
87.5
 30
0.0
 11
592.49501953125
 21
82.13968163879805
 31
0.0
  0
LINE
  5
E4
330
4E3
100
AcDbEntity
  8
DIMNSIONS
  6
Continuous
 62
     7
100
AcDbLine
 10
612.5
 20
87.5
 30
0.0
 11
592.49501953125
 21
92.86031836120194
 31
0.0
  0
LINE
  5
E5
330
4E3
100
AcDbEntity
  8
DIMNSIONS
  6
Continuous
 62
     7
100
AcDbLine
 10
614.0999999999994
 20
87.5
 30
0.0
 11
667.4333333333327
 21
87.5
 31
0.0
  0
LINE
  5
E6
330
4E3
100
AcDbEntity
  8
DIMNSIONS
  6
Continuous
 62
     7
100
AcDbLine
 10
614.0999999999994
 20
87.5
 30
0.0
 11
634.1049804687494
 21
92.86031836120194
 31
0.0
  0
LINE
  5
E7
330
4E3
100
AcDbEntity
  8
DIMNSIONS
  6
Continuous
 62
     7
100
AcDbLine
 10
614.0999999999994
 20
87.5
 30
0.0
 11
634.1049804687494
 21
82.13968163879805
 31
0.0
  0
TEXT
  5
E8
330
4E3
100
AcDbEntity
  8
DIMNSIONS
 62
     7
100
AcDbText
 10
625.0999999999995
 20
95.45111111111109
 30
0.0
 40
21.71788194444445
  1
1.6
 41
0.7
 11
625.0999999999995
 21
117.1689930555555
 31
0.0
100
AcDbText
 73
     3
  0
TEXT
  5
E9
330
4E3
100
AcDbEntity
  8
DIMNSIONS
 62
     7
100
AcDbText
 10
-155.0
 20
-951.8440799999996
 30
0.0
 40
19.54609375
  1
(単位：mm)
 41
0.7
 11
-155.0
 21
-932.2979862499996
 31
0.0
100
AcDbText
 73
     3
  0
LINE
  5
EA
330
4E3
100
AcDbEntity
  8
DIMNSIONS
  6
Continuous
 62
     7
100
AcDbLine
 10
-25.0
 20
117.0
 30
0.0
 11
-25.0
 21
71.5
 31
0.0
  0
LINE
  5
EB
330
4E3
100
AcDbEntity
  8
DIMNSIONS
  6
Continuous
 62
     7
100
AcDbLine
 10
216.0000000000003
 20
118.0
 30
0.0
 11
216.0000000000003
 21
71.5
 31
0.0
  0
LINE
  5
EC
330
4E3
100
AcDbEntity
  8
DIMNSIONS
  6
Continuous
 62
     7
100
AcDbLine
 10
-25.0
 20
87.5
 30
0.0
 11
216.0000000000003
 21
87.5
 31
0.0
  0
LINE
  5
ED
330
4E3
100
AcDbEntity
  8
DIMNSIONS
  6
Continuous
 62
     7
100
AcDbLine
 10
-25.0
 20
87.5
 30
0.0
 11
-4.995019531250001
 21
92.86031836120194
 31
0.0
  0
LINE
  5
EE
330
4E3
100
AcDbEntity
  8
DIMNSIONS
  6
Continuous
 62
     7
100
AcDbLine
 10
-25.0
 20
87.5
 30
0.0
 11
-4.995019531250001
 21
82.13968163879805
 31
0.0
  0
LINE
  5
EF
330
4E3
100
AcDbEntity
  8
DIMNSIONS
  6
Continuous
 62
     7
100
AcDbLine
 10
216.0000000000003
 20
87.5
 30
0.0
 11
195.9950195312503
 21
82.13968163879805
 31
0.0
  0
LINE
  5
F0
330
4E3
100
AcDbEntity
  8
DIMNSIONS
  6
Continuous
 62
     7
100
AcDbLine
 10
216.0000000000003
 20
87.5
 30
0.0
 11
195.9950195312503
 21
92.86031836120194
 31
0.0
  0
TEXT
  5
F1
330
4E3
100
AcDbEntity
  8
DIMNSIONS
 62
     7
100
AcDbText
 10
74.33333333333346
 20
95.45111111111109
 30
0.0
 40
21.71788194444445
  1
241
 41
0.7
 11
74.33333333333346
 21
117.1689930555555
 31
0.0
100
AcDbText
 73
     3
  0
LINE
  5
F2
330
4E3
100
AcDbEntity
  8
DIMNSIONS
  6
Continuous
 62
     7
100
AcDbLine
 10
-33.0
 20
169.5
 30
0.0
 11
-66.0
 21
169.5
 31
0.0
  0
LINE
  5
F3
330
4E3
100
AcDbEntity
  8
DIMNSIONS
  6
Continuous
 62
     7
100
AcDbLine
 10
-33.0
 20
125.0
 30
0.0
 11
-66.0
 21
125.0
 31
0.0
  0
LINE
  5
F4
330
4E3
100
AcDbEntity
  8
DIMNSIONS
  6
Continuous
 62
     7
100
AcDbLine
 10
-50.0
 20
125.0
 30
0.0
 11
-50.0
 21
169.5
 31
0.0
  0
LINE
  5
F5
330
4E3
100
AcDbEntity
  8
DIMNSIONS
  6
Continuous
 62
     7
100
AcDbLine
 10
-50.0
 20
169.5
 30
0.0
 11
-50.0
 21
197.5
 31
0.0
  0
LINE
  5
F6
330
4E3
100
AcDbEntity
  8
DIMNSIONS
  6
Continuous
 62
     7
100
AcDbLine
 10
-50.0
 20
169.5
 30
0.0
 11
-55.36031836120193
 21
189.50498046875
 31
0.0
  0
LINE
  5
F7
330
4E3
100
AcDbEntity
  8
DIMNSIONS
  6
Continuous
 62
     7
100
AcDbLine
 10
-50.0
 20
169.5
 30
0.0
 11
-44.63968163879804
 21
189.50498046875
 31
0.0
  0
LINE
  5
F8
330
4E3
100
AcDbEntity
  8
DIMNSIONS
  6
Continuous
 62
     7
100
AcDbLine
 10
-50.0
 20
125.0
 30
0.0
 11
-50.0
 21
97.0
 31
0.0
  0
LINE
  5
F9
330
4E3
100
AcDbEntity
  8
DIMNSIONS
  6
Continuous
 62
     7
100
AcDbLine
 10
-50.0
 20
125.0
 30
0.0
 11
-44.63968163879804
 21
104.99501953125
 31
0.0
  0
LINE
  5
FA
330
4E3
100
AcDbEntity
  8
DIMNSIONS
  6
Continuous
 62
     7
100
AcDbLine
 10
-50.0
 20
125.0
 30
0.0
 11
-55.36031836120193
 21
104.99501953125
 31
0.0
  0
TEXT
  5
FB
330
4E3
100
AcDbEntity
  8
DIMNSIONS
 62
     7
100
AcDbText
 10
-73.95111111111109
 20
119.0277777777777
 30
0.0
 40
21.71788194444445
  1
44.5
 50
90.0
 41
0.7
 11
-95.66899305555555
 21
119.0277777777777
 31
0.0
100
AcDbText
 73
     3
  0
LINE
  5
FC
330
4E3
100
AcDbEntity
  8
DIMNSIONS
  6
Continuous
 62
     7
100
AcDbLine
 10
-33.0
 20
258.5
 30
0.0
 11
-66.0
 21
258.5
 31
0.0
  0
LINE
  5
FD
330
4E3
100
AcDbEntity
  8
DIMNSIONS
  6
Continuous
 62
     7
100
AcDbLine
 10
-30.0
 20
237.5
 30
0.0
 11
-66.0
 21
237.5
 31
0.0
  0
LINE
  5
FE
330
4E3
100
AcDbEntity
  8
DIMNSIONS
  6
Continuous
 62
     7
100
AcDbLine
 10
-50.0
 20
237.5
 30
0.0
 11
-50.0
 21
258.5
 31
0.0
  0
LINE
  5
FF
330
4E3
100
AcDbEntity
  8
DIMNSIONS
  6
Continuous
 62
     7
100
AcDbLine
 10
-50.0
 20
258.5
 30
0.0
 11
-50.0
 21
286.5
 31
0.0
  0
LINE
  5
100
330
4E3
100
AcDbEntity
  8
DIMNSIONS
  6
Continuous
 62
     7
100
AcDbLine
 10
-50.0
 20
258.5
 30
0.0
 11
-55.36031836120193
 21
278.50498046875
 31
0.0
  0
LINE
  5
101
330
4E3
100
AcDbEntity
  8
DIMNSIONS
  6
Continuous
 62
     7
100
AcDbLine
 10
-50.0
 20
258.5
 30
0.0
 11
-44.63968163879804
 21
278.50498046875
 31
0.0
  0
LINE
  5
102
330
4E3
100
AcDbEntity
  8
DIMNSIONS
  6
Continuous
 62
     7
100
AcDbLine
 10
-50.0
 20
237.5
 30
0.0
 11
-50.0
 21
209.5
 31
0.0
  0
LINE
  5
103
330
4E3
100
AcDbEntity
  8
DIMNSIONS
  6
Continuous
 62
     7
100
AcDbLine
 10
-50.0
 20
237.5
 30
0.0
 11
-44.63968163879804
 21
217.49501953125
 31
0.0
  0
LINE
  5
104
330
4E3
100
AcDbEntity
  8
DIMNSIONS
  6
Continuous
 62
     7
100
AcDbLine
 10
-50.0
 20
237.5
 30
0.0
 11
-55.36031836120193
 21
217.49501953125
 31
0.0
  0
TEXT
  5
105
330
4E3
100
AcDbEntity
  8
DIMNSIONS
 62
     7
100
AcDbText
 10
-73.95111111111109
 20
219.7777777777778
 30
0.0
 40
21.71788194444445
  1
21.0
 50
90.0
 41
0.7
 11
-95.66899305555555
 21
219.7777777777778
 31
0.0
100
AcDbText
 73
     3
  0
TEXT
  5
106
330
4E3
100
AcDbEntity
  8
DATA
 62
     7
100
AcDbText
 10
401.4400024875577
 20
-960.9528799999996
 30
0.0
 40
19.54609375
  1
CSM 14
 41
0.7
 11
401.4400024875577
 21
-941.4067862499996
 31
0.0
100
AcDbText
 73
     3
  0
TEXT
  5
107
330
4E3
100
AcDbEntity
  8
DATA
 62
     7
100
AcDbText
 10
-695.0
 20
-986.9897777777774
 30
0.0
 40
15.20251736111111
  1
※仕様及び外観は予告なく変更されることがあります。
 41
0.7
 11
-695.0
 21
-971.7872604166664
 31
0.0
100
AcDbText
 73
     3
  0
TEXT
  5
108
330
4E3
100
AcDbEntity
  8
DATA
 62
     7
100
AcDbText
 10
-695.0
 20
-1006.745333333333
 30
0.0
 40
15.20251736111111
  1
　また、同一商品でも若干の個体差があることがあります。ご了承ください。
 41
0.7
 11
-695.0
 21
-991.5428159722221
 31
0.0
100
AcDbText
 73
     3
  0
TEXT
  5
109
330
4E3
100
AcDbEntity
  8
DATA
 62
     7
100
AcDbText
 10
470.9469097222221
 20
14.14105902777777
 30
0.0
 40
21.71788194444445
  1
フラットブラケット
 41
0.7
 72
     1
 11
550.0
 21
25.0
 31
0.0
100
AcDbText
 73
     2
  0
TEXT
  5
10A
330
4E3
100
AcDbEntity
  8
DATA
 62
     7
100
AcDbText
 10
-371.4518315972222
 20
40.75217013888888
 30
0.0
 40
21.71788194444445
  1
フロントアングル
 41
0.7
 72
     1
 11
-300.0
 21
51.61111111111111
 31
0.0
100
AcDbText
 73
     2
  0
TEXT
  5
10B
330
4E3
100
AcDbEntity
  8
DATA
 62
     7
100
AcDbText
 10
-342.5670486111111
 20
12.52994791666666
 30
0.0
 40
21.71788194444445
  1
ブラケット
 41
0.7
 72
     1
 11
-300.0
 21
23.38888888888889
 31
0.0
100
AcDbText
 73
     2
  0
LINE
  5
10C
330
4E3
100
AcDbEntity
  8
DATA
  6
Continuous
 62
     7
100
AcDbLine
 10
412.5
 20
0.0
 30
0.0
 11
687.5
 21
0.0
 31
0.0
  0
LINE
  5
10D
330
4E3
100
AcDbEntity
  8
DATA
  6
Continuous
 62
     7
100
AcDbLine
 10
-412.5
 20
0.0
 30
0.0
 11
-187.5
 21
0.0
 31
0.0
  0
LINE
  5
10E
330
4E3
100
AcDbEntity
  8
DATA
  6
Continuous
 62
     7
100
AcDbLine
 10
-323.0
 20
237.5
 30
0.0
 11
-323.0
 21
239.8
 31
0.0
  0
LINE
  5
10F
330
4E3
100
AcDbEntity
  8
DATA
  6
Continuous
 62
     7
100
AcDbLine
 10
-303.0
 20
237.5
 30
0.0
 11
-323.0
 21
237.5
 31
0.0
  0
LINE
  5
110
330
4E3
100
AcDbEntity
  8
DATA
  6
Continuous
 62
     7
100
AcDbLine
 10
-303.0
 20
239.8
 30
0.0
 11
-323.0
 21
239.8
 31
0.0
  0
LINE
  5
111
330
4E3
100
AcDbEntity
  8
DATA
  6
Continuous
 62
     7
100
AcDbLine
 10
-302.3000000000002
 20
257.8
 30
0.0
 11
-302.3000000000002
 21
240.5
 31
0.0
  0
LINE
  5
112
330
4E3
100
AcDbEntity
  8
DATA
  6
Continuous
 62
     7
100
AcDbLine
 10
-300.0
 20
257.8
 30
0.0
 11
-300.0
 21
240.5
 31
0.0
  0
ARC
  5
113
330
4E3
100
AcDbEntity
  8
DATA
  6
Continuous
 62
     7
100
AcDbCircle
 10
-303.0
 20
240.5
 30
0.0
 40
3.0
100
AcDbArc
 50
270.0
 51
0.0
  0
ARC
  5
114
330
4E3
100
AcDbEntity
  8
DATA
  6
Continuous
 62
     7
100
AcDbCircle
 10
-303.0
 20
240.5
 30
0.0
 40
0.7000000000000455
100
AcDbArc
 50
270.0
 51
0.0
  0
LINE
  5
115
330
4E3
100
AcDbEntity
  8
DATA
  6
Continuous
 62
     7
100
AcDbLine
 10
216.0000000000003
 20
237.5
 30
0.0
 11
216.0000000000003
 21
239.5
 31
0.0
  0
LINE
  5
116
330
4E3
100
AcDbEntity
  8
DATA
  6
Continuous
 62
     7
100
AcDbLine
 10
-22.0
 20
237.5
 30
0.0
 11
216.0000000000003
 21
237.5
 31
0.0
  0
LINE
  5
117
330
4E3
100
AcDbEntity
  8
DATA
  6
Continuous
 62
     7
100
AcDbLine
 10
-22.0
 20
239.5
 30
0.0
 11
216.0000000000003
 21
239.5
 31
0.0
  0
LINE
  5
118
330
4E3
100
AcDbEntity
  8
DATA
  6
Continuous
 62
     7
100
AcDbLine
 10
-25.0
 20
258.5
 30
0.0
 11
-23.0
 21
258.5
 31
0.0
  0
LINE
  5
119
330
4E3
100
AcDbEntity
  8
DATA
  6
Continuous
 62
     7
100
AcDbLine
 10
-23.0
 20
258.5
 30
0.0
 11
-23.0
 21
240.5
 31
0.0
  0
LINE
  5
11A
330
4E3
100
AcDbEntity
  8
DATA
  6
Continuous
 62
     7
100
AcDbLine
 10
-25.0
 20
258.5
 30
0.0
 11
-25.0
 21
240.5
 31
0.0
  0
ARC
  5
11B
330
4E3
100
AcDbEntity
  8
DATA
  6
Continuous
 62
     7
100
AcDbCircle
 10
-22.0
 20
240.5
 30
0.0
 40
3.0
100
AcDbArc
 50
180.0
 51
270.0
  0
ARC
  5
11C
330
4E3
100
AcDbEntity
  8
DATA
  6
Continuous
 62
     7
100
AcDbCircle
 10
-22.0
 20
240.5
 30
0.0
 40
1.0
100
AcDbArc
 50
180.0
 51
270.0
  0
LINE
  5
11D
330
4E3
100
AcDbEntity
  8
DATA
  6
Continuous
 62
     7
100
AcDbLine
 10
-500.0
 20
-625.0
 30
0.0
 11
-500.0
 21
-321.0
 31
0.0
  0
LINE
  5
11E
330
4E3
100
AcDbEntity
  8
DATA
  6
Continuous
 62
     7
100
AcDbLine
 10
-282.0
 20
-625.0
 30
0.0
 11
-500.0
 21
-625.0
 31
0.0
  0
LINE
  5
11F
330
4E3
100
AcDbEntity
  8
DATA
  6
Continuous
 62
     7
100
AcDbLine
 10
-282.0
 20
-321.0
 30
0.0
 11
-282.0
 21
-625.0
 31
0.0
  0
LINE
  5
120
330
4E3
100
AcDbEntity
  8
DATA
  6
Continuous
 62
     7
100
AcDbLine
 10
-500.0
 20
-321.0
 30
0.0
 11
-282.0
 21
-321.0
 31
0.0
  0
CIRCLE
  5
121
330
4E3
100
AcDbEntity
  8
DATA
  6
Continuous
 62
     7
100
AcDbCircle
 10
-391.0
 20
-616.0
 30
0.0
 40
2.65000000000009
  0
LINE
  5
122
330
4E3
100
AcDbEntity
  8
DATA
  6
Continuous
 62
     7
100
AcDbLine
 10
-390.3236689616356
 20
-614.3671924345271
 30
0.0
 11
-391.6763310383644
 21
-614.3671924345271
 31
0.0
  0
LINE
  5
123
330
4E3
100
AcDbEntity
  8
DATA
  6
Continuous
 62
     7
100
AcDbLine
 10
-389.3671924345272
 20
-615.3236689616355
 30
0.0
 11
-390.3236689616356
 21
-614.3671924345271
 31
0.0
  0
LINE
  5
124
330
4E3
100
AcDbEntity
  8
DATA
  6
Continuous
 62
     7
100
AcDbLine
 10
-389.3671924345272
 20
-616.6763310383644
 30
0.0
 11
-389.3671924345272
 21
-615.3236689616355
 31
0.0
  0
LINE
  5
125
330
4E3
100
AcDbEntity
  8
DATA
  6
Continuous
 62
     7
100
AcDbLine
 10
-390.3236689616356
 20
-617.632807565473
 30
0.0
 11
-389.3671924345272
 21
-616.6763310383644
 31
0.0
  0
LINE
  5
126
330
4E3
100
AcDbEntity
  8
DATA
  6
Continuous
 62
     7
100
AcDbLine
 10
-391.6763310383644
 20
-617.632807565473
 30
0.0
 11
-390.3236689616356
 21
-617.632807565473
 31
0.0
  0
LINE
  5
127
330
4E3
100
AcDbEntity
  8
DATA
  6
Continuous
 62
     7
100
AcDbLine
 10
-392.6328075654728
 20
-616.6763310383644
 30
0.0
 11
-391.6763310383644
 21
-617.632807565473
 31
0.0
  0
LINE
  5
128
330
4E3
100
AcDbEntity
  8
DATA
  6
Continuous
 62
     7
100
AcDbLine
 10
-392.6328075654728
 20
-615.3236689616355
 30
0.0
 11
-392.6328075654728
 21
-616.6763310383644
 31
0.0
  0
LINE
  5
129
330
4E3
100
AcDbEntity
  8
DATA
  6
Continuous
 62
     7
100
AcDbLine
 10
-391.6763310383644
 20
-614.3671924345271
 30
0.0
 11
-392.6328075654728
 21
-615.3236689616355
 31
0.0
  0
CIRCLE
  5
12A
330
4E3
100
AcDbEntity
  8
DATA
  6
Continuous
 62
     7
100
AcDbCircle
 10
-485.0
 20
-616.0
 30
0.0
 40
2.65000000000009
  0
LINE
  5
12B
330
4E3
100
AcDbEntity
  8
DATA
  6
Continuous
 62
     7
100
AcDbLine
 10
-484.3236689616356
 20
-614.3671924345271
 30
0.0
 11
-485.6763310383644
 21
-614.3671924345271
 31
0.0
  0
LINE
  5
12C
330
4E3
100
AcDbEntity
  8
DATA
  6
Continuous
 62
     7
100
AcDbLine
 10
-483.3671924345272
 20
-615.3236689616355
 30
0.0
 11
-484.3236689616356
 21
-614.3671924345271
 31
0.0
  0
LINE
  5
12D
330
4E3
100
AcDbEntity
  8
DATA
  6
Continuous
 62
     7
100
AcDbLine
 10
-483.3671924345272
 20
-616.6763310383644
 30
0.0
 11
-483.3671924345272
 21
-615.3236689616355
 31
0.0
  0
LINE
  5
12E
330
4E3
100
AcDbEntity
  8
DATA
  6
Continuous
 62
     7
100
AcDbLine
 10
-484.3236689616356
 20
-617.632807565473
 30
0.0
 11
-483.3671924345272
 21
-616.6763310383644
 31
0.0
  0
LINE
  5
12F
330
4E3
100
AcDbEntity
  8
DATA
  6
Continuous
 62
     7
100
AcDbLine
 10
-485.6763310383644
 20
-617.632807565473
 30
0.0
 11
-484.3236689616356
 21
-617.632807565473
 31
0.0
  0
LINE
  5
130
330
4E3
100
AcDbEntity
  8
DATA
  6
Continuous
 62
     7
100
AcDbLine
 10
-486.6328075654728
 20
-616.6763310383644
 30
0.0
 11
-485.6763310383644
 21
-617.632807565473
 31
0.0
  0
LINE
  5
131
330
4E3
100
AcDbEntity
  8
DATA
  6
Continuous
 62
     7
100
AcDbLine
 10
-486.6328075654728
 20
-615.3236689616355
 30
0.0
 11
-486.6328075654728
 21
-616.6763310383644
 31
0.0
  0
LINE
  5
132
330
4E3
100
AcDbEntity
  8
DATA
  6
Continuous
 62
     7
100
AcDbLine
 10
-485.6763310383644
 20
-614.3671924345271
 30
0.0
 11
-486.6328075654728
 21
-615.3236689616355
 31
0.0
  0
CIRCLE
  5
133
330
4E3
100
AcDbEntity
  8
DATA
  6
Continuous
 62
     7
100
AcDbCircle
 10
-297.0
 20
-616.0
 30
0.0
 40
2.65000000000009
  0
LINE
  5
134
330
4E3
100
AcDbEntity
  8
DATA
  6
Continuous
 62
     7
100
AcDbLine
 10
-297.6763310383644
 20
-614.3671924345271
 30
0.0
 11
-296.3236689616356
 21
-614.3671924345271
 31
0.0
  0
LINE
  5
135
330
4E3
100
AcDbEntity
  8
DATA
  6
Continuous
 62
     7
100
AcDbLine
 10
-298.6328075654728
 20
-615.3236689616355
 30
0.0
 11
-297.6763310383644
 21
-614.3671924345271
 31
0.0
  0
LINE
  5
136
330
4E3
100
AcDbEntity
  8
DATA
  6
Continuous
 62
     7
100
AcDbLine
 10
-298.6328075654728
 20
-616.6763310383644
 30
0.0
 11
-298.6328075654728
 21
-615.3236689616355
 31
0.0
  0
LINE
  5
137
330
4E3
100
AcDbEntity
  8
DATA
  6
Continuous
 62
     7
100
AcDbLine
 10
-297.6763310383644
 20
-617.632807565473
 30
0.0
 11
-298.6328075654728
 21
-616.6763310383644
 31
0.0
  0
LINE
  5
138
330
4E3
100
AcDbEntity
  8
DATA
  6
Continuous
 62
     7
100
AcDbLine
 10
-296.3236689616356
 20
-617.632807565473
 30
0.0
 11
-297.6763310383644
 21
-617.632807565473
 31
0.0
  0
LINE
  5
139
330
4E3
100
AcDbEntity
  8
DATA
  6
Continuous
 62
     7
100
AcDbLine
 10
-295.3671924345272
 20
-616.6763310383644
 30
0.0
 11
-296.3236689616356
 21
-617.632807565473
 31
0.0
  0
LINE
  5
13A
330
4E3
100
AcDbEntity
  8
DATA
  6
Continuous
 62
     7
100
AcDbLine
 10
-295.3671924345272
 20
-615.3236689616355
 30
0.0
 11
-295.3671924345272
 21
-616.6763310383644
 31
0.0
  0
LINE
  5
13B
330
4E3
100
AcDbEntity
  8
DATA
  6
Continuous
 62
     7
100
AcDbLine
 10
-296.3236689616356
 20
-614.3671924345271
 30
0.0
 11
-295.3671924345272
 21
-615.3236689616355
 31
0.0
  0
CIRCLE
  5
13C
330
4E3
100
AcDbEntity
  8
DATA
  6
Continuous
 62
     7
100
AcDbCircle
 10
-440.0
 20
-328.0
 30
0.0
 40
2.65000000000009
  0
LINE
  5
13D
330
4E3
100
AcDbEntity
  8
DATA
  6
Continuous
 62
     7
100
AcDbLine
 10
-439.3236689616355
 20
-326.367192434527
 30
0.0
 11
-440.6763310383644
 21
-326.367192434527
 31
0.0
  0
LINE
  5
13E
330
4E3
100
AcDbEntity
  8
DATA
  6
Continuous
 62
     7
100
AcDbLine
 10
-438.3671924345271
 20
-327.3236689616357
 30
0.0
 11
-439.3236689616355
 21
-326.367192434527
 31
0.0
  0
LINE
  5
13F
330
4E3
100
AcDbEntity
  8
DATA
  6
Continuous
 62
     7
100
AcDbLine
 10
-438.3671924345271
 20
-328.6763310383643
 30
0.0
 11
-438.3671924345271
 21
-327.3236689616357
 31
0.0
  0
LINE
  5
140
330
4E3
100
AcDbEntity
  8
DATA
  6
Continuous
 62
     7
100
AcDbLine
 10
-439.3236689616355
 20
-329.6328075654729
 30
0.0
 11
-438.3671924345271
 21
-328.6763310383643
 31
0.0
  0
LINE
  5
141
330
4E3
100
AcDbEntity
  8
DATA
  6
Continuous
 62
     7
100
AcDbLine
 10
-440.6763310383644
 20
-329.6328075654729
 30
0.0
 11
-439.3236689616355
 21
-329.6328075654729
 31
0.0
  0
LINE
  5
142
330
4E3
100
AcDbEntity
  8
DATA
  6
Continuous
 62
     7
100
AcDbLine
 10
-441.6328075654727
 20
-328.6763310383643
 30
0.0
 11
-440.6763310383644
 21
-329.6328075654729
 31
0.0
  0
LINE
  5
143
330
4E3
100
AcDbEntity
  8
DATA
  6
Continuous
 62
     7
100
AcDbLine
 10
-441.6328075654727
 20
-327.3236689616357
 30
0.0
 11
-441.6328075654727
 21
-328.6763310383643
 31
0.0
  0
LINE
  5
144
330
4E3
100
AcDbEntity
  8
DATA
  6
Continuous
 62
     7
100
AcDbLine
 10
-440.6763310383644
 20
-326.367192434527
 30
0.0
 11
-441.6328075654727
 21
-327.3236689616357
 31
0.0
  0
CIRCLE
  5
145
330
4E3
100
AcDbEntity
  8
DATA
  6
Continuous
 62
     7
100
AcDbCircle
 10
-342.0
 20
-328.0
 30
0.0
 40
2.65000000000009
  0
LINE
  5
146
330
4E3
100
AcDbEntity
  8
DATA
  6
Continuous
 62
     7
100
AcDbLine
 10
-342.6763310383644
 20
-326.367192434527
 30
0.0
 11
-341.3236689616356
 21
-326.367192434527
 31
0.0
  0
LINE
  5
147
330
4E3
100
AcDbEntity
  8
DATA
  6
Continuous
 62
     7
100
AcDbLine
 10
-343.6328075654728
 20
-327.3236689616357
 30
0.0
 11
-342.6763310383644
 21
-326.367192434527
 31
0.0
  0
LINE
  5
148
330
4E3
100
AcDbEntity
  8
DATA
  6
Continuous
 62
     7
100
AcDbLine
 10
-343.6328075654728
 20
-328.6763310383643
 30
0.0
 11
-343.6328075654728
 21
-327.3236689616357
 31
0.0
  0
LINE
  5
149
330
4E3
100
AcDbEntity
  8
DATA
  6
Continuous
 62
     7
100
AcDbLine
 10
-342.6763310383644
 20
-329.6328075654729
 30
0.0
 11
-343.6328075654728
 21
-328.6763310383643
 31
0.0
  0
LINE
  5
14A
330
4E3
100
AcDbEntity
  8
DATA
  6
Continuous
 62
     7
100
AcDbLine
 10
-341.3236689616356
 20
-329.6328075654729
 30
0.0
 11
-342.6763310383644
 21
-329.6328075654729
 31
0.0
  0
LINE
  5
14B
330
4E3
100
AcDbEntity
  8
DATA
  6
Continuous
 62
     7
100
AcDbLine
 10
-340.3671924345272
 20
-328.6763310383643
 30
0.0
 11
-341.3236689616356
 21
-329.6328075654729
 31
0.0
  0
LINE
  5
14C
330
4E3
100
AcDbEntity
  8
DATA
  6
Continuous
 62
     7
100
AcDbLine
 10
-340.3671924345272
 20
-327.3236689616357
 30
0.0
 11
-340.3671924345272
 21
-328.6763310383643
 31
0.0
  0
LINE
  5
14D
330
4E3
100
AcDbEntity
  8
DATA
  6
Continuous
 62
     7
100
AcDbLine
 10
-341.3236689616356
 20
-326.367192434527
 30
0.0
 11
-340.3671924345272
 21
-327.3236689616357
 31
0.0
  0
LINE
  5
14E
330
4E3
100
AcDbEntity
  8
DATA
  6
Continuous
 62
     7
100
AcDbLine
 10
-382.0
 20
-625.0
 30
0.0
 11
-382.0
 21
-624.0
 31
0.0
  0
LINE
  5
14F
330
4E3
100
AcDbEntity
  8
DATA
  6
Continuous
 62
     7
100
AcDbLine
 10
-318.0
 20
-625.0
 30
0.0
 11
-318.0
 21
-624.0
 31
0.0
  0
LINE
  5
150
330
4E3
100
AcDbEntity
  8
DATA
  6
Continuous
 62
     7
100
AcDbLine
 10
-382.0
 20
-624.0
 30
0.0
 11
-318.0
 21
-624.0
 31
0.0
  0
LINE
  5
151
330
4E3
100
AcDbEntity
  8
DATA
  6
Continuous
 62
     7
100
AcDbLine
 10
-282.0
 20
-622.5
 30
0.0
 11
-500.0
 21
-622.5
 31
0.0
  0
ARC
  5
152
330
4E3
100
AcDbEntity
  8
DATA
  6
Continuous
 62
     7
100
AcDbCircle
 10
-350.0
 20
-495.7749999999919
 30
0.0
 40
140.7250000000079
100
AcDbArc
 50
266.9449491155744
 51
273.0550508844257
  0
LINE
  5
153
330
4E3
100
AcDbEntity
  8
DATA
  6
Continuous
 62
     7
100
AcDbLine
 10
-357.5
 20
-636.2999999999999
 30
0.0
 11
-358.1500000000001
 21
-624.9847515630778
 31
0.0
  0
LINE
  5
154
330
4E3
100
AcDbEntity
  8
DATA
  6
Continuous
 62
     7
100
AcDbLine
 10
-342.5
 20
-636.2999999999999
 30
0.0
 11
-341.8499999999999
 21
-625.0
 31
0.0
  0
ARC
  5
155
330
4E3
100
AcDbEntity
  8
DATA
  6
Continuous
 62
     7
100
AcDbCircle
 10
-468.0
 20
-560.2749999999957
 30
0.0
 40
75.72500000000419
100
AcDbArc
 50
265.8348694405384
 51
274.1651305594615
  0
LINE
  5
156
330
4E3
100
AcDbEntity
  8
DATA
  6
Continuous
 62
     7
100
AcDbLine
 10
-474.0
 20
-625.0
 30
0.0
 11
-473.5
 21
-635.7999999999999
 31
0.0
  0
LINE
  5
157
330
4E3
100
AcDbEntity
  8
DATA
  6
Continuous
 62
     7
100
AcDbLine
 10
-462.0
 20
-625.0
 30
0.0
 11
-462.5
 21
-635.7999999999999
 31
0.0
  0
ARC
  5
158
330
4E3
100
AcDbEntity
  8
DATA
  6
Continuous
 62
     7
100
AcDbCircle
 10
-445.0
 20
-560.2749999999957
 30
0.0
 40
75.72500000000419
100
AcDbArc
 50
265.8348694405384
 51
274.1651305594615
  0
LINE
  5
159
330
4E3
100
AcDbEntity
  8
DATA
  6
Continuous
 62
     7
100
AcDbLine
 10
-451.0
 20
-625.0
 30
0.0
 11
-450.4999999999999
 21
-635.7999999999999
 31
0.0
  0
LINE
  5
15A
330
4E3
100
AcDbEntity
  8
DATA
  6
Continuous
 62
     7
100
AcDbLine
 10
-439.0
 20
-625.0
 30
0.0
 11
-439.5
 21
-635.7999999999999
 31
0.0
  0
ARC
  5
15B
330
4E3
100
AcDbEntity
  8
DATA
  6
Continuous
 62
     7
100
AcDbCircle
 10
-422.0
 20
-560.2749999999957
 30
0.0
 40
75.72500000000419
100
AcDbArc
 50
265.8348694405384
 51
274.1651305594615
  0
LINE
  5
15C
330
4E3
100
AcDbEntity
  8
DATA
  6
Continuous
 62
     7
100
AcDbLine
 10
-428.0
 20
-625.0
 30
0.0
 11
-427.5
 21
-635.7999999999999
 31
0.0
  0
LINE
  5
15D
330
4E3
100
AcDbEntity
  8
DATA
  6
Continuous
 62
     7
100
AcDbLine
 10
-416.0
 20
-625.0
 30
0.0
 11
-416.5
 21
-635.7999999999999
 31
0.0
  0
ARC
  5
15E
330
4E3
100
AcDbEntity
  8
DATA
  6
Continuous
 62
     7
100
AcDbCircle
 10
-399.0
 20
-560.2749999999957
 30
0.0
 40
75.72500000000419
100
AcDbArc
 50
265.8348694405384
 51
274.1651305594615
  0
LINE
  5
15F
330
4E3
100
AcDbEntity
  8
DATA
  6
Continuous
 62
     7
100
AcDbLine
 10
-405.0
 20
-625.0
 30
0.0
 11
-404.4999999999999
 21
-635.7999999999999
 31
0.0
  0
LINE
  5
160
330
4E3
100
AcDbEntity
  8
DATA
  6
Continuous
 62
     7
100
AcDbLine
 10
-393.0
 20
-625.0
 30
0.0
 11
-393.5
 21
-635.7999999999999
 31
0.0
  0
LINE
  5
161
330
4E3
100
AcDbEntity
  8
DATA
  6
Continuous
 62
     7
100
AcDbLine
 10
-304.25
 20
-630.4999999999999
 30
0.0
 11
-295.75
 21
-630.4999999999999
 31
0.0
  0
LINE
  5
162
330
4E3
100
AcDbEntity
  8
DATA
  6
Continuous
 62
     7
100
AcDbLine
 10
-304.25
 20
-630.4999999999999
 30
0.0
 11
-304.25
 21
-625.0
 31
0.0
  0
LINE
  5
163
330
4E3
100
AcDbEntity
  8
DATA
  6
Continuous
 62
     7
100
AcDbLine
 10
-295.75
 20
-630.4999999999999
 30
0.0
 11
-295.75
 21
-625.0
 31
0.0
  0
LINE
  5
164
330
4E3
100
AcDbEntity
  8
DATA
  6
Continuous
 62
     7
100
AcDbLine
 10
-492.0500000000001
 20
-314.5
 30
0.0
 11
-483.9500056395913
 21
-314.5
 31
0.0
  0
LINE
  5
165
330
4E3
100
AcDbEntity
  8
DATA
  6
Continuous
 62
     7
100
AcDbLine
 10
-478.0500000000001
 20
-314.5
 30
0.0
 11
-469.9499999999998
 21
-314.5
 31
0.0
  0
LINE
  5
166
330
4E3
100
AcDbEntity
  8
DATA
  6
Continuous
 62
     7
100
AcDbLine
 10
-443.5500000000001
 20
-314.5
 30
0.0
 11
-435.4499999999998
 21
-314.5
 31
0.0
  0
LINE
  5
167
330
4E3
100
AcDbEntity
  8
DATA
  6
Continuous
 62
     7
100
AcDbLine
 10
-430.0500000000001
 20
-314.5
 30
0.0
 11
-421.9499999999999
 21
-314.5
 31
0.0
  0
LINE
  5
168
330
4E3
100
AcDbEntity
  8
DATA
  6
Continuous
 62
     7
100
AcDbLine
 10
-483.9500056395913
 20
-314.5
 30
0.0
 11
-483.9500061595535
 21
-321.0
 31
0.0
  0
LINE
  5
169
330
4E3
100
AcDbEntity
  8
DATA
  6
Continuous
 62
     7
100
AcDbLine
 10
-492.0500000000001
 20
-314.5
 30
0.0
 11
-492.0500000000001
 21
-321.0
 31
0.0
  0
LINE
  5
16A
330
4E3
100
AcDbEntity
  8
DATA
  6
Continuous
 62
     7
100
AcDbLine
 10
-478.0500000000001
 20
-314.5
 30
0.0
 11
-478.0500000000001
 21
-321.0
 31
0.0
  0
LINE
  5
16B
330
4E3
100
AcDbEntity
  8
DATA
  6
Continuous
 62
     7
100
AcDbLine
 10
-469.9499999999998
 20
-314.5
 30
0.0
 11
-469.9499999999998
 21
-321.0
 31
0.0
  0
LINE
  5
16C
330
4E3
100
AcDbEntity
  8
DATA
  6
Continuous
 62
     7
100
AcDbLine
 10
-443.5500000000001
 20
-314.5
 30
0.0
 11
-443.5500000000001
 21
-321.0
 31
0.0
  0
LINE
  5
16D
330
4E3
100
AcDbEntity
  8
DATA
  6
Continuous
 62
     7
100
AcDbLine
 10
-435.4499999999998
 20
-314.5
 30
0.0
 11
-435.4499999999998
 21
-321.0
 31
0.0
  0
LINE
  5
16E
330
4E3
100
AcDbEntity
  8
DATA
  6
Continuous
 62
     7
100
AcDbLine
 10
-430.0500000000001
 20
-314.5
 30
0.0
 11
-430.0500000000001
 21
-321.0
 31
0.0
  0
LINE
  5
16F
330
4E3
100
AcDbEntity
  8
DATA
  6
Continuous
 62
     7
100
AcDbLine
 10
-421.9499999999999
 20
-314.5
 30
0.0
 11
-421.9499999999999
 21
-321.0
 31
0.0
  0
LINE
  5
170
330
4E3
100
AcDbEntity
  8
DATA
  6
Continuous
 62
     7
100
AcDbLine
 10
-326.5
 20
-319.5
 30
0.0
 11
-326.5
 21
-321.0
 31
0.0
  0
LINE
  5
171
330
4E3
100
AcDbEntity
  8
DATA
  6
Continuous
 62
     7
100
AcDbLine
 10
-295.5
 20
-319.5
 30
0.0
 11
-295.5
 21
-321.0
 31
0.0
  0
LINE
  5
172
330
4E3
100
AcDbEntity
  8
DATA
  6
Continuous
 62
     7
100
AcDbLine
 10
-326.5
 20
-319.5
 30
0.0
 11
-295.5
 21
-319.5
 31
0.0
  0
ARC
  5
173
330
4E3
100
AcDbEntity
  8
DATA
  6
Continuous
 62
     7
100
AcDbCircle
 10
-291.0
 20
-323.0
 30
0.0
 40
5.0
100
AcDbArc
 50
36.86989764584403
 51
143.130102354156
  0
LINE
  5
174
330
4E3
100
AcDbEntity
  8
DATA
  6
Continuous
 62
     7
100
AcDbLine
 10
-295.0
 20
-320.0
 30
0.0
 11
-295.0
 21
-321.0
 31
0.0
  0
LINE
  5
175
330
4E3
100
AcDbEntity
  8
DATA
  6
Continuous
 62
     7
100
AcDbLine
 10
-287.0
 20
-320.0
 30
0.0
 11
-287.0
 21
-321.0
 31
0.0
  0
ARC
  5
176
330
4E3
100
AcDbEntity
  8
DATA
  6
Continuous
 62
     7
100
AcDbCircle
 10
-331.0
 20
-323.0
 30
0.0
 40
5.0
100
AcDbArc
 50
36.86989764584403
 51
143.130102354156
  0
LINE
  5
177
330
4E3
100
AcDbEntity
  8
DATA
  6
Continuous
 62
     7
100
AcDbLine
 10
-335.0
 20
-320.0
 30
0.0
 11
-335.0
 21
-321.0
 31
0.0
  0
LINE
  5
178
330
4E3
100
AcDbEntity
  8
DATA
  6
Continuous
 62
     7
100
AcDbLine
 10
-327.0
 20
-320.0
 30
0.0
 11
-327.0
 21
-321.0
 31
0.0
  0
LINE
  5
179
330
4E3
100
AcDbEntity
  8
DATA
  6
Continuous
 62
     7
100
AcDbLine
 10
-500.0
 20
-273.5
 30
0.0
 11
-500.0
 21
-230.5
 31
0.0
  0
LINE
  5
17A
330
4E3
100
AcDbEntity
  8
DATA
  6
Continuous
 62
     7
100
AcDbLine
 10
-283.5
 20
-275.0
 30
0.0
 11
-498.5
 21
-275.0
 31
0.0
  0
LINE
  5
17B
330
4E3
100
AcDbEntity
  8
DATA
  6
Continuous
 62
     7
100
AcDbLine
 10
-500.0
 20
-230.5
 30
0.0
 11
-282.0
 21
-230.5
 31
0.0
  0
LINE
  5
17C
330
4E3
100
AcDbEntity
  8
DATA
  6
Continuous
 62
     7
100
AcDbLine
 10
-284.6999999999998
 20
-273.8
 30
0.0
 11
-497.3000000000001
 21
-273.8
 31
0.0
  0
LINE
  5
17D
330
4E3
100
AcDbEntity
  8
DATA
  6
Continuous
 62
     7
100
AcDbLine
 10
-283.1999999999998
 20
-272.3
 30
0.0
 11
-283.1999999999998
 21
-230.5
 31
0.0
  0
ARC
  5
17E
330
4E3
100
AcDbEntity
  8
DATA
  6
Continuous
 62
     7
100
AcDbCircle
 10
-284.6999999999998
 20
-272.3
 30
0.0
 40
1.5
100
AcDbArc
 50
270.0
 51
0.0
  0
ARC
  5
17F
330
4E3
100
AcDbEntity
  8
DATA
  6
Continuous
 62
     7
100
AcDbCircle
 10
-283.5
 20
-273.5
 30
0.0
 40
1.5
100
AcDbArc
 50
270.0
 51
0.0
  0
ARC
  5
180
330
4E3
100
AcDbEntity
  8
DATA
  6
Continuous
 62
     7
100
AcDbCircle
 10
-497.3000000000001
 20
-272.3
 30
0.0
 40
1.5
100
AcDbArc
 50
180.0
 51
270.0
  0
ARC
  5
181
330
4E3
100
AcDbEntity
  8
DATA
  6
Continuous
 62
     7
100
AcDbCircle
 10
-498.5
 20
-273.5
 30
0.0
 40
1.5
100
AcDbArc
 50
180.0
 51
270.0
  0
LINE
  5
182
330
4E3
100
AcDbEntity
  8
DATA
  6
Continuous
 62
     7
100
AcDbLine
 10
-498.8000000000001
 20
-272.3
 30
0.0
 11
-498.8000000000001
 21
-230.5
 31
0.0
  0
CIRCLE
  5
183
330
4E3
100
AcDbEntity
  8
DATA
  6
Continuous
 62
     7
100
AcDbCircle
 10
-488.0
 20
-243.0
 30
0.0
 40
4.050000000000181
  0
CIRCLE
  5
184
330
4E3
100
AcDbEntity
  8
DATA
  6
Continuous
 62
     7
100
AcDbCircle
 10
-474.0
 20
-243.0
 30
0.0
 40
4.050000000000181
  0
CIRCLE
  5
185
330
4E3
100
AcDbEntity
  8
DATA
  6
Continuous
 62
     7
100
AcDbCircle
 10
-488.0
 20
-243.0
 30
0.0
 40
1.800000000000181
  0
CIRCLE
  5
186
330
4E3
100
AcDbEntity
  8
DATA
  6
Continuous
 62
     7
100
AcDbCircle
 10
-474.0
 20
-243.0
 30
0.0
 40
1.800000000000181
  0
CIRCLE
  5
187
330
4E3
100
AcDbEntity
  8
DATA
  6
Continuous
 62
     7
100
AcDbCircle
 10
-481.0
 20
-248.8
 30
0.0
 40
2.65000000000009
  0
LINE
  5
188
330
4E3
100
AcDbEntity
  8
DATA
  6
Continuous
 62
     7
100
AcDbLine
 10
-481.4726618517962
 20
-249.9411066530226
 30
0.0
 11
-480.5273381482039
 21
-249.9411066530226
 31
0.0
  0
LINE
  5
189
330
4E3
100
AcDbEntity
  8
DATA
  6
Continuous
 62
     7
100
AcDbLine
 10
-482.1411066530226
 20
-249.2726618517961
 30
0.0
 11
-481.4726618517962
 21
-249.9411066530226
 31
0.0
  0
LINE
  5
18A
330
4E3
100
AcDbEntity
  8
DATA
  6
Continuous
 62
     7
100
AcDbLine
 10
-482.1411066530226
 20
-248.3273381482038
 30
0.0
 11
-482.1411066530226
 21
-249.2726618517961
 31
0.0
  0
LINE
  5
18B
330
4E3
100
AcDbEntity
  8
DATA
  6
Continuous
 62
     7
100
AcDbLine
 10
-481.4726618517962
 20
-247.6588933469774
 30
0.0
 11
-482.1411066530226
 21
-248.3273381482038
 31
0.0
  0
LINE
  5
18C
330
4E3
100
AcDbEntity
  8
DATA
  6
Continuous
 62
     7
100
AcDbLine
 10
-480.5273381482039
 20
-247.6588933469774
 30
0.0
 11
-481.4726618517962
 21
-247.6588933469774
 31
0.0
  0
LINE
  5
18D
330
4E3
100
AcDbEntity
  8
DATA
  6
Continuous
 62
     7
100
AcDbLine
 10
-479.8588933469772
 20
-248.3273381482039
 30
0.0
 11
-480.5273381482039
 21
-247.6588933469774
 31
0.0
  0
LINE
  5
18E
330
4E3
100
AcDbEntity
  8
DATA
  6
Continuous
 62
     7
100
AcDbLine
 10
-479.8588933469772
 20
-249.2726618517961
 30
0.0
 11
-479.8588933469772
 21
-248.3273381482039
 31
0.0
  0
LINE
  5
18F
330
4E3
100
AcDbEntity
  8
DATA
  6
Continuous
 62
     7
100
AcDbLine
 10
-480.5273381482039
 20
-249.9411066530226
 30
0.0
 11
-479.8588933469772
 21
-249.2726618517961
 31
0.0
  0
LINE
  5
190
330
4E3
100
AcDbEntity
  8
DATA
  6
Continuous
 62
     7
100
AcDbLine
 10
-446.0
 20
-232.5
 30
0.0
 11
-446.0
 21
-268.5
 31
0.0
  0
LINE
  5
191
330
4E3
100
AcDbEntity
  8
DATA
  6
Continuous
 62
     7
100
AcDbLine
 10
-496.5749160645064
 20
-251.0
 30
0.0
 11
-482.4773286702692
 21
-251.0
 31
0.0
  0
LINE
  5
192
330
4E3
100
AcDbEntity
  8
DATA
  6
Continuous
 62
     7
100
AcDbLine
 10
-479.5226713297306
 20
-251.0
 30
0.0
 11
-435.4
 21
-251.0
 31
0.0
  0
LINE
  5
193
330
4E3
100
AcDbEntity
  8
DATA
  6
Continuous
 62
     7
100
AcDbLine
 10
-430.0999999999999
 20
-251.0
 30
0.0
 11
-396.0
 21
-251.0
 31
0.0
  0
LINE
  5
194
330
4E3
100
AcDbEntity
  8
DATA
  6
Continuous
 62
     7
100
AcDbLine
 10
-463.3835127974116
 20
-239.9041804046191
 30
0.0
 11
-448.3835127974112
 21
-239.9041804046191
 31
0.0
  0
LWPOLYLINE
  5
195
330
4E3
100
AcDbEntity
  8
DATA
  6
Continuous
 62
     7
100
AcDbPolyline
 90
        4
 70
     1
 43
0.0
 10
-461.3835127974116
 20
-235.4041804046191
 10
-460.3835127974116
 20
-235.4041804046191
 10
-460.3835127974116
 20
-236.4041804046191
 10
-461.3835127974116
 20
-236.4041804046191
  0
LWPOLYLINE
  5
19C
330
4E3
100
AcDbEntity
  8
DATA
  6
Continuous
 62
     7
100
AcDbPolyline
 90
        4
 70
     1
 43
0.0
 10
-456.3835127974116
 20
-235.4041804046191
 10
-455.3835127974116
 20
-235.4041804046191
 10
-455.3835127974116
 20
-236.4041804046191
 10
-456.3835127974116
 20
-236.4041804046191
  0
LWPOLYLINE
  5
1A3
330
4E3
100
AcDbEntity
  8
DATA
  6
Continuous
 62
     7
100
AcDbPolyline
 90
        4
 70
     1
 43
0.0
 10
-451.3835127974116
 20
-235.4041804046191
 10
-450.3835127974116
 20
-235.4041804046191
 10
-450.3835127974116
 20
-236.4041804046191
 10
-451.3835127974116
 20
-236.4041804046191
  0
ARC
  5
1AA
330
4E3
100
AcDbEntity
  8
DATA
  6
Continuous
 62
     7
100
AcDbCircle
 10
-460.8835127974112
 20
-236.5291804046191
 30
0.0
 40
3.625
100
AcDbArc
 50
46.39718102729637
 51
133.6028189727036
  0
ARC
  5
1AB
330
4E3
100
AcDbEntity
  8
DATA
  6
Continuous
 62
     7
100
AcDbCircle
 10
-455.8835127974112
 20
-236.5291804046191
 30
0.0
 40
3.625
100
AcDbArc
 50
46.39718102729637
 51
133.6028189727036
  0
ARC
  5
1AC
330
4E3
100
AcDbEntity
  8
DATA
  6
Continuous
 62
     7
100
AcDbCircle
 10
-450.8835127974111
 20
-236.5291804046191
 30
0.0
 40
3.625
100
AcDbArc
 50
46.39718102729637
 51
133.6028189727036
  0
LINE
  5
1AD
330
4E3
100
AcDbEntity
  8
DATA
  6
Continuous
 62
     7
100
AcDbLine
 10
-448.3835127974112
 20
-233.4041804046191
 30
0.0
 11
-448.3835127974112
 21
-240.4041804046191
 31
0.0
  0
ARC
  5
1AE
330
4E3
100
AcDbEntity
  8
DATA
  6
Continuous
 62
     7
100
AcDbCircle
 10
-460.8835127974112
 20
-236.0291804046191
 30
0.0
 40
3.625
100
AcDbArc
 50
46.39718102729637
 51
133.6028189727036
  0
ARC
  5
1AF
330
4E3
100
AcDbEntity
  8
DATA
  6
Continuous
 62
     7
100
AcDbCircle
 10
-455.8835127974112
 20
-236.0291804046191
 30
0.0
 40
3.625
100
AcDbArc
 50
46.39718102729637
 51
133.6028189727036
  0
ARC
  5
1B0
330
4E3
100
AcDbEntity
  8
DATA
  6
Continuous
 62
     7
100
AcDbCircle
 10
-450.8835127974111
 20
-236.0291804046191
 30
0.0
 40
3.625
100
AcDbArc
 50
46.39718102729637
 51
133.6028189727036
  0
LINE
  5
1B1
330
4E3
100
AcDbEntity
  8
DATA
  6
Continuous
 62
     7
100
AcDbLine
 10
-463.3835127974116
 20
-240.4041804046191
 30
0.0
 11
-448.3835127974112
 21
-240.4041804046191
 31
0.0
  0
LINE
  5
1B2
330
4E3
100
AcDbEntity
  8
DATA
  6
Continuous
 62
     7
100
AcDbLine
 10
-463.3835127974116
 20
-233.4041804046191
 30
0.0
 11
-463.3835127974116
 21
-240.4041804046191
 31
0.0
  0
LINE
  5
1B3
330
4E3
100
AcDbEntity
  8
DATA
  6
Continuous
 62
     7
100
AcDbLine
 10
-446.8835127974111
 20
-232.0287121753862
 30
0.0
 11
-446.8835127974111
 21
-245.9451025238224
 31
0.0
  0
LINE
  5
1B4
330
4E3
100
AcDbEntity
  8
DATA
  6
Continuous
 62
     7
100
AcDbLine
 10
-464.8835127974112
 20
-232.0287121753862
 30
0.0
 11
-446.8835127974111
 21
-232.0287121753862
 31
0.0
  0
LINE
  5
1B5
330
4E3
100
AcDbEntity
  8
DATA
  6
Continuous
 62
     7
100
AcDbLine
 10
-464.8835127974112
 20
-245.9451025238224
 30
0.0
 11
-464.8835127974112
 21
-232.0287121753862
 31
0.0
  0
LINE
  5
1B6
330
4E3
100
AcDbEntity
  8
DATA
  6
Continuous
 62
     7
100
AcDbLine
 10
-453.0835127974113
 20
-248.76567483606
 30
0.0
 11
-458.6835127974113
 21
-248.76567483606
 31
0.0
  0
LINE
  5
1B7
330
4E3
100
AcDbEntity
  8
DATA
  6
Continuous
 62
     7
100
AcDbLine
 10
-453.0835127974113
 20
-245.9451025238224
 30
0.0
 11
-453.0835127974113
 21
-248.76567483606
 31
0.0
  0
LINE
  5
1B8
330
4E3
100
AcDbEntity
  8
DATA
  6
Continuous
 62
     7
100
AcDbLine
 10
-458.6835127974113
 20
-248.76567483606
 30
0.0
 11
-458.6835127974113
 21
-245.9451025238224
 31
0.0
  0
LINE
  5
1B9
330
4E3
100
AcDbEntity
  8
DATA
  6
Continuous
 62
     7
100
AcDbLine
 10
-464.8835127974112
 20
-245.9451025238224
 30
0.0
 11
-458.6835127974113
 21
-245.9451025238224
 31
0.0
  0
LINE
  5
1BA
330
4E3
100
AcDbEntity
  8
DATA
  6
Continuous
 62
     7
100
AcDbLine
 10
-453.0835127974113
 20
-245.9451025238224
 30
0.0
 11
-446.8835127974111
 21
-245.9451025238224
 31
0.0
  0
LINE
  5
1BB
330
4E3
100
AcDbEntity
  8
DATA
  6
Continuous
 62
     7
100
AcDbLine
 10
-453.3774070459116
 20
-245.5740356452981
 30
0.0
 11
-453.3774070459116
 21
-248.5740356452982
 31
0.0
  0
LINE
  5
1BC
330
4E3
100
AcDbEntity
  8
DATA
  6
Continuous
 62
     7
100
AcDbLine
 10
-456.3774070459117
 20
-245.5740356452981
 30
0.0
 11
-453.3774070459116
 21
-245.5740356452981
 31
0.0
  0
LINE
  5
1BD
330
4E3
100
AcDbEntity
  8
DATA
  6
Continuous
 62
     7
100
AcDbLine
 10
-456.3774070459117
 20
-248.5740356452982
 30
0.0
 11
-456.3774070459117
 21
-245.5740356452981
 31
0.0
  0
LINE
  5
1BE
330
4E3
100
AcDbEntity
  8
DATA
  6
Continuous
 62
     7
100
AcDbLine
 10
-453.3774070459116
 20
-248.5740356452982
 30
0.0
 11
-456.3774070459117
 21
-248.5740356452982
 31
0.0
  0
TEXT
  5
1BF
330
4E3
100
AcDbEntity
  8
DATA
 62
     7
100
AcDbText
 10
-448.1961919484337
 20
-246.3669317802729
 30
0.0
 40
1.628841485636124
  1
LINE
 50
180.0
 41
0.7
 11
-448.1961919484337
 21
-247.995773265909
 31
0.0
100
AcDbText
 73
     3
  0
TEXT
  5
1C0
330
4E3
100
AcDbEntity
  8
DATA
 62
     7
100
AcDbText
 10
-459.3779666763752
 20
-246.3669317802729
 30
0.0
 40
1.628841485636124
  1
MIC
 50
180.0
 41
0.7
 11
-459.3779666763752
 21
-247.995773265909
 31
0.0
100
AcDbText
 73
     3
  0
LINE
  5
1C1
330
4E3
100
AcDbEntity
  8
DATA
  6
Continuous
 62
     7
100
AcDbLine
 10
-454.1909709769629
 20
-245.5740356452981
 30
0.0
 11
-454.1909709769629
 21
-248.5740356452982
 31
0.0
  0
LINE
  5
1C2
330
4E3
100
AcDbEntity
  8
DATA
  6
Continuous
 62
     7
100
AcDbLine
 10
-454.8909709769628
 20
-245.5740356452981
 30
0.0
 11
-454.8909709769628
 21
-248.5740356452982
 31
0.0
  0
LINE
  5
1C3
330
4E3
100
AcDbEntity
  8
DATA
  6
Continuous
 62
     7
100
AcDbLine
 10
-455.5909709769625
 20
-245.5740356452981
 30
0.0
 11
-455.5909709769625
 21
-248.5740356452982
 31
0.0
  0
LINE
  5
1C4
330
4E3
100
AcDbEntity
  8
DATA
  6
Continuous
 62
     7
100
AcDbLine
 10
-473.3835128
 20
-260.338
 30
0.0
 11
-448.3835128
 21
-260.338
 31
0.0
  0
LWPOLYLINE
  5
1C5
330
4E3
100
AcDbEntity
  8
DATA
  6
Continuous
 62
     7
100
AcDbPolyline
 90
        4
 70
     1
 43
0.0
 10
-471.3835128
 20
-255.838
 10
-470.3835128
 20
-255.838
 10
-470.3835128
 20
-256.838
 10
-471.3835128
 20
-256.838
  0
LWPOLYLINE
  5
1CC
330
4E3
100
AcDbEntity
  8
DATA
  6
Continuous
 62
     7
100
AcDbPolyline
 90
        4
 70
     1
 43
0.0
 10
-466.3835128
 20
-255.838
 10
-465.3835128
 20
-255.838
 10
-465.3835128
 20
-256.838
 10
-466.3835128
 20
-256.838
  0
LWPOLYLINE
  5
1D3
330
4E3
100
AcDbEntity
  8
DATA
  6
Continuous
 62
     7
100
AcDbPolyline
 90
        4
 70
     1
 43
0.0
 10
-461.3835128
 20
-255.838
 10
-460.3835128
 20
-255.838
 10
-460.3835128
 20
-256.838
 10
-461.3835128
 20
-256.838
  0
LWPOLYLINE
  5
1DA
330
4E3
100
AcDbEntity
  8
DATA
  6
Continuous
 62
     7
100
AcDbPolyline
 90
        4
 70
     1
 43
0.0
 10
-456.3835128
 20
-255.838
 10
-455.3835128000001
 20
-255.838
 10
-455.3835128000001
 20
-256.838
 10
-456.3835128
 20
-256.838
  0
LWPOLYLINE
  5
1E1
330
4E3
100
AcDbEntity
  8
DATA
  6
Continuous
 62
     7
100
AcDbPolyline
 90
        4
 70
     1
 43
0.0
 10
-451.3835128000001
 20
-255.838
 10
-450.3835128
 20
-255.838
 10
-450.3835128
 20
-256.838
 10
-451.3835128000001
 20
-256.838
  0
ARC
  5
1E8
330
4E3
100
AcDbEntity
  8
DATA
  6
Continuous
 62
     7
100
AcDbCircle
 10
-470.8835128
 20
-256.963
 30
0.0
 40
3.625
100
AcDbArc
 50
46.39718102729637
 51
133.6028189727036
  0
ARC
  5
1E9
330
4E3
100
AcDbEntity
  8
DATA
  6
Continuous
 62
     7
100
AcDbCircle
 10
-465.8835128
 20
-256.963
 30
0.0
 40
3.625
100
AcDbArc
 50
46.39718102729637
 51
133.6028189727036
  0
ARC
  5
1EA
330
4E3
100
AcDbEntity
  8
DATA
  6
Continuous
 62
     7
100
AcDbCircle
 10
-460.8835128
 20
-256.963
 30
0.0
 40
3.625
100
AcDbArc
 50
46.39718102729637
 51
133.6028189727036
  0
ARC
  5
1EB
330
4E3
100
AcDbEntity
  8
DATA
  6
Continuous
 62
     7
100
AcDbCircle
 10
-455.8835128000001
 20
-256.963
 30
0.0
 40
3.625
100
AcDbArc
 50
46.39718102729637
 51
133.6028189727036
  0
ARC
  5
1EC
330
4E3
100
AcDbEntity
  8
DATA
  6
Continuous
 62
     7
100
AcDbCircle
 10
-450.8835128
 20
-256.963
 30
0.0
 40
3.625
100
AcDbArc
 50
46.39718102729637
 51
133.6028189727036
  0
LINE
  5
1ED
330
4E3
100
AcDbEntity
  8
DATA
  6
Continuous
 62
     7
100
AcDbLine
 10
-448.3835128
 20
-253.838
 30
0.0
 11
-448.3835128
 21
-260.838
 31
0.0
  0
ARC
  5
1EE
330
4E3
100
AcDbEntity
  8
DATA
  6
Continuous
 62
     7
100
AcDbCircle
 10
-470.8835128
 20
-256.463
 30
0.0
 40
3.625
100
AcDbArc
 50
46.39718102729637
 51
133.6028189727036
  0
ARC
  5
1EF
330
4E3
100
AcDbEntity
  8
DATA
  6
Continuous
 62
     7
100
AcDbCircle
 10
-465.8835128
 20
-256.463
 30
0.0
 40
3.625
100
AcDbArc
 50
46.39718102729637
 51
133.6028189727036
  0
ARC
  5
1F0
330
4E3
100
AcDbEntity
  8
DATA
  6
Continuous
 62
     7
100
AcDbCircle
 10
-460.8835128
 20
-256.463
 30
0.0
 40
3.625
100
AcDbArc
 50
46.39718102729637
 51
133.6028189727036
  0
ARC
  5
1F1
330
4E3
100
AcDbEntity
  8
DATA
  6
Continuous
 62
     7
100
AcDbCircle
 10
-455.8835128000001
 20
-256.463
 30
0.0
 40
3.625
100
AcDbArc
 50
46.39718102729637
 51
133.6028189727036
  0
ARC
  5
1F2
330
4E3
100
AcDbEntity
  8
DATA
  6
Continuous
 62
     7
100
AcDbCircle
 10
-450.8835128
 20
-256.463
 30
0.0
 40
3.625
100
AcDbArc
 50
46.39718102729637
 51
133.6028189727036
  0
LINE
  5
1F3
330
4E3
100
AcDbEntity
  8
DATA
  6
Continuous
 62
     7
100
AcDbLine
 10
-473.3835128
 20
-260.838
 30
0.0
 11
-448.3835128
 21
-260.838
 31
0.0
  0
LINE
  5
1F4
330
4E3
100
AcDbEntity
  8
DATA
  6
Continuous
 62
     7
100
AcDbLine
 10
-473.3835128
 20
-253.838
 30
0.0
 11
-473.3835128
 21
-260.838
 31
0.0
  0
LINE
  5
1F5
330
4E3
100
AcDbEntity
  8
DATA
  6
Continuous
 62
     7
100
AcDbLine
 10
-446.8835127974111
 20
-252.4629521723339
 30
0.0
 11
-446.8835127974111
 21
-266.37934252077
 31
0.0
  0
LINE
  5
1F6
330
4E3
100
AcDbEntity
  8
DATA
  6
Continuous
 62
     7
100
AcDbLine
 10
-474.8835127974111
 20
-252.4629521723339
 30
0.0
 11
-446.8835127974111
 21
-252.4629521723339
 31
0.0
  0
LINE
  5
1F7
330
4E3
100
AcDbEntity
  8
DATA
  6
Continuous
 62
     7
100
AcDbLine
 10
-474.8835127974111
 20
-266.37934252077
 30
0.0
 11
-474.8835127974111
 21
-252.4629521723339
 31
0.0
  0
LINE
  5
1F8
330
4E3
100
AcDbEntity
  8
DATA
  6
Continuous
 62
     7
100
AcDbLine
 10
-453.0835127974113
 20
-269.1999148330077
 30
0.0
 11
-458.6835127974113
 21
-269.1999148330077
 31
0.0
  0
LINE
  5
1F9
330
4E3
100
AcDbEntity
  8
DATA
  6
Continuous
 62
     7
100
AcDbLine
 10
-453.0835127974113
 20
-266.37934252077
 30
0.0
 11
-453.0835127974113
 21
-269.1999148330076
 31
0.0
  0
LINE
  5
1FA
330
4E3
100
AcDbEntity
  8
DATA
  6
Continuous
 62
     7
100
AcDbLine
 10
-458.6835127974113
 20
-269.1999148330076
 30
0.0
 11
-458.6835127974113
 21
-266.37934252077
 31
0.0
  0
LINE
  5
1FB
330
4E3
100
AcDbEntity
  8
DATA
  6
Continuous
 62
     7
100
AcDbLine
 10
-474.8835127974111
 20
-266.37934252077
 30
0.0
 11
-458.6835127974113
 21
-266.37934252077
 31
0.0
  0
LINE
  5
1FC
330
4E3
100
AcDbEntity
  8
DATA
  6
Continuous
 62
     7
100
AcDbLine
 10
-453.0835127974113
 20
-266.37934252077
 30
0.0
 11
-446.8835127974111
 21
-266.37934252077
 31
0.0
  0
LINE
  5
1FD
330
4E3
100
AcDbEntity
  8
DATA
  6
Continuous
 62
     7
100
AcDbLine
 10
-453.3774070459116
 20
-266.0082756422458
 30
0.0
 11
-453.3774070459116
 21
-269.0082756422459
 31
0.0
  0
LINE
  5
1FE
330
4E3
100
AcDbEntity
  8
DATA
  6
Continuous
 62
     7
100
AcDbLine
 10
-456.3774070459117
 20
-266.0082756422458
 30
0.0
 11
-453.3774070459116
 21
-266.0082756422458
 31
0.0
  0
LINE
  5
1FF
330
4E3
100
AcDbEntity
  8
DATA
  6
Continuous
 62
     7
100
AcDbLine
 10
-456.3774070459117
 20
-269.0082756422459
 30
0.0
 11
-456.3774070459117
 21
-266.0082756422458
 31
0.0
  0
LINE
  5
200
330
4E3
100
AcDbEntity
  8
DATA
  6
Continuous
 62
     7
100
AcDbLine
 10
-453.3774070459116
 20
-269.0082756422459
 30
0.0
 11
-456.3774070459117
 21
-269.0082756422459
 31
0.0
  0
TEXT
  5
201
330
4E3
100
AcDbEntity
  8
DATA
 62
     7
100
AcDbText
 10
-448.1961919484337
 20
-266.8011717772206
 30
0.0
 40
1.628841485636124
  1
LINE
 50
180.0
 41
0.7
 11
-448.1961919484337
 21
-268.4300132628567
 31
0.0
100
AcDbText
 73
     3
  0
TEXT
  5
202
330
4E3
100
AcDbEntity
  8
DATA
 62
     7
100
AcDbText
 10
-459.3779666763752
 20
-266.8011717772206
 30
0.0
 40
1.628841485636124
  1
MIC
 50
180.0
 41
0.7
 11
-459.3779666763752
 21
-268.4300132628567
 31
0.0
100
AcDbText
 73
     3
  0
LINE
  5
203
330
4E3
100
AcDbEntity
  8
DATA
  6
Continuous
 62
     7
100
AcDbLine
 10
-454.1909709769629
 20
-266.0082756422458
 30
0.0
 11
-454.1909709769629
 21
-269.0082756422459
 31
0.0
  0
LINE
  5
204
330
4E3
100
AcDbEntity
  8
DATA
  6
Continuous
 62
     7
100
AcDbLine
 10
-454.8909709769628
 20
-266.0082756422458
 30
0.0
 11
-454.8909709769628
 21
-269.0082756422459
 31
0.0
  0
LINE
  5
205
330
4E3
100
AcDbEntity
  8
DATA
  6
Continuous
 62
     7
100
AcDbLine
 10
-455.5909709769625
 20
-266.0082756422458
 30
0.0
 11
-455.5909709769625
 21
-269.0082756422459
 31
0.0
  0
TEXT
  5
206
330
4E3
100
AcDbEntity
  8
DATA
 62
     7
100
AcDbText
 10
-474.6498873757495
 20
-233.2986662074327
 30
0.0
 40
2.443262228454186
  1
MONO SUM
 50
180.0
 41
0.7
 11
-474.6498873757495
 21
-235.7419284358869
 31
0.0
100
AcDbText
 73
     3
  0
TEXT
  5
207
330
4E3
100
AcDbEntity
  8
DATA
 62
     7
100
AcDbText
 10
-467.2170307381767
 20
-231.6869723625337
 30
0.0
 40
1.628841485636124
  1
CH2 INPUT
 50
270.0
 41
0.7
 11
-465.5881892525406
 21
-231.6869723625337
 31
0.0
100
AcDbText
 73
     3
  0
TEXT
  5
208
330
4E3
100
AcDbEntity
  8
DATA
 62
     7
100
AcDbText
 10
-477.2454179227198
 20
-251.981100614528
 30
0.0
 40
1.628841485636124
  1
CH1 INPUT
 50
270.0
 41
0.7
 11
-475.6165764370837
 21
-251.981100614528
 31
0.0
100
AcDbText
 73
     3
  0
CIRCLE
  5
209
330
4E3
100
AcDbEntity
  8
DATA
  6
Continuous
 62
     7
100
AcDbCircle
 10
-491.5
 20
-261.0
 30
0.0
 40
3.0
  0
LINE
  5
20A
330
4E3
100
AcDbEntity
  8
DATA
  6
Continuous
 62
     7
100
AcDbLine
 10
-490.8083614603246
 20
-263.919184154937
 30
0.0
 11
-490.8083614603246
 21
-258.0808158450629
 31
0.0
  0
LINE
  5
20B
330
4E3
100
AcDbEntity
  8
DATA
  6
Continuous
 62
     7
100
AcDbLine
 10
-492.1916385396753
 20
-263.919184154937
 30
0.0
 11
-492.1916385396753
 21
-258.0808158450629
 31
0.0
  0
TEXT
  5
20C
330
4E3
100
AcDbEntity
  8
DATA
 62
     7
100
AcDbText
 10
-489.1620351507599
 20
-254.3984266292496
 30
0.0
 40
2.443262228454186
  1
VOX
 50
180.0
 41
0.7
 11
-489.1620351507599
 21
-256.8416888577039
 31
0.0
100
AcDbText
 73
     3
  0
CIRCLE
  5
20D
330
4E3
100
AcDbEntity
  8
DATA
  6
Continuous
 62
     7
100
AcDbCircle
 10
-465.1376269826711
 20
-269.0307717707549
 30
0.0
 40
0.3000000000001819
  0
CIRCLE
  5
20E
330
4E3
100
AcDbEntity
  8
DATA
  6
Continuous
 62
     7
100
AcDbCircle
 10
-467.3376269826713
 20
-269.0307717707549
 30
0.0
 40
0.2999999999997272
  0
CIRCLE
  5
20F
330
4E3
100
AcDbEntity
  8
DATA
  6
Continuous
 62
     7
100
AcDbCircle
 10
-469.537626982671
 20
-269.0307717707549
 30
0.0
 40
0.3000000000001819
  0
CIRCLE
  5
210
330
4E3
100
AcDbEntity
  8
DATA
  6
Continuous
 62
     7
100
AcDbCircle
 10
-471.7376269826713
 20
-269.0307717707549
 30
0.0
 40
0.2999999999997272
  0
CIRCLE
  5
211
330
4E3
100
AcDbEntity
  8
DATA
  6
Continuous
 62
     7
100
AcDbCircle
 10
-473.9376269826712
 20
-269.0307717707549
 30
0.0
 40
0.3000000000001819
  0
TEXT
  5
212
330
4E3
100
AcDbEntity
  8
DATA
 62
     7
100
AcDbText
 10
-475.7627252782822
 20
-267.2538665750463
 30
0.0
 40
1.628841485636124
  1
PRIORITY
 50
180.0
 41
0.7
 11
-475.7627252782822
 21
-268.8827080606825
 31
0.0
100
AcDbText
 73
     3
  0
LINE
  5
213
330
4E3
100
AcDbEntity
  8
DATA
  6
Continuous
 62
     7
100
AcDbLine
 10
-473.9376269826712
 20
-268.7307717707549
 30
0.0
 11
-473.9376269826712
 21
-267.9976224233728
 31
0.0
  0
LINE
  5
214
330
4E3
100
AcDbEntity
  8
DATA
  6
Continuous
 62
     7
100
AcDbLine
 10
-471.7376269826713
 20
-268.7307717707549
 30
0.0
 11
-471.7376269826713
 21
-267.9976224233728
 31
0.0
  0
LINE
  5
215
330
4E3
100
AcDbEntity
  8
DATA
  6
Continuous
 62
     7
100
AcDbLine
 10
-475.4584280223609
 20
-267.9976224233728
 30
0.0
 11
-471.7376269826713
 21
-267.9976224233728
 31
0.0
  0
LINE
  5
216
330
4E3
100
AcDbEntity
  8
DATA
  6
Continuous
 62
     7
100
AcDbLine
 10
-466.9362149986524
 20
-267.9976224233728
 30
0.0
 11
-467.7390389666903
 21
-267.9976224233728
 31
0.0
  0
LINE
  5
217
330
4E3
100
AcDbEntity
  8
DATA
  6
Continuous
 62
     7
100
AcDbLine
 10
-467.3376269826713
 20
-268.3990344073918
 30
0.0
 11
-467.3376269826713
 21
-267.5962104393538
 31
0.0
  0
LINE
  5
218
330
4E3
100
AcDbEntity
  8
DATA
  6
Continuous
 62
     7
100
AcDbLine
 10
-469.136214998652
 20
-267.9976224233728
 30
0.0
 11
-469.93903896669
 21
-267.9976224233728
 31
0.0
  0
LINE
  5
219
330
4E3
100
AcDbEntity
  8
DATA
  6
Continuous
 62
     7
100
AcDbLine
 10
-473.5362149986522
 20
-267.9976224233728
 30
0.0
 11
-474.3390389666902
 21
-267.9976224233728
 31
0.0
  0
LINE
  5
21A
330
4E3
100
AcDbEntity
  8
DATA
  6
Continuous
 62
     7
100
AcDbLine
 10
-464.7362149986519
 20
-267.8335864211519
 30
0.0
 11
-465.53903896669
 21
-267.8335864211519
 31
0.0
  0
LINE
  5
21B
330
4E3
100
AcDbEntity
  8
DATA
  6
Continuous
 62
     7
100
AcDbLine
 10
-465.1376269826711
 20
-267.8335864211519
 30
0.0
 11
-465.0019990454292
 21
-267.598671942923
 31
0.0
  0
LINE
  5
21C
330
4E3
100
AcDbEntity
  8
DATA
  6
Continuous
 62
     7
100
AcDbLine
 10
-464.8376269782008
 20
-267.8335864211519
 30
0.0
 11
-464.7019990409589
 21
-267.598671942923
 31
0.0
  0
LINE
  5
21D
330
4E3
100
AcDbEntity
  8
DATA
  6
Continuous
 62
     7
100
AcDbLine
 10
-465.4376269826712
 20
-267.8335864211519
 30
0.0
 11
-465.301999045429
 21
-267.598671942923
 31
0.0
  0
LINE
  5
21E
330
4E3
100
AcDbEntity
  8
DATA
  6
Continuous
 62
     7
100
AcDbLine
 10
-465.1376269826711
 20
-267.8335864211519
 30
0.0
 11
-465.1376269826711
 21
-268.6335864211519
 31
0.0
  0
CIRCLE
  5
21F
330
4E3
100
AcDbEntity
  8
DATA
  6
Continuous
 62
     7
100
AcDbCircle
 10
-439.5
 20
-258.5091491372527
 30
0.0
 40
4.050000000000181
  0
CIRCLE
  5
220
330
4E3
100
AcDbEntity
  8
DATA
  6
Continuous
 62
     7
100
AcDbCircle
 10
-439.5
 20
-258.5091491372527
 30
0.0
 40
1.800000000000181
  0
CIRCLE
  5
221
330
4E3
100
AcDbEntity
  8
DATA
  6
Continuous
 62
     7
100
AcDbCircle
 10
-439.5
 20
-243.5091491372527
 30
0.0
 40
4.050000000000181
  0
CIRCLE
  5
222
330
4E3
100
AcDbEntity
  8
DATA
  6
Continuous
 62
     7
100
AcDbCircle
 10
-439.5
 20
-243.5091491372527
 30
0.0
 40
1.800000000000181
  0
CIRCLE
  5
223
330
4E3
100
AcDbEntity
  8
DATA
  6
Continuous
 62
     7
100
AcDbCircle
 10
-426.0
 20
-258.5091491372527
 30
0.0
 40
4.050000000000181
  0
CIRCLE
  5
224
330
4E3
100
AcDbEntity
  8
DATA
  6
Continuous
 62
     7
100
AcDbCircle
 10
-426.0
 20
-258.5091491372527
 30
0.0
 40
1.800000000000181
  0
CIRCLE
  5
225
330
4E3
100
AcDbEntity
  8
DATA
  6
Continuous
 62
     7
100
AcDbCircle
 10
-426.0
 20
-243.5091491372527
 30
0.0
 40
4.050000000000181
  0
CIRCLE
  5
226
330
4E3
100
AcDbEntity
  8
DATA
  6
Continuous
 62
     7
100
AcDbCircle
 10
-426.0
 20
-243.5091491372527
 30
0.0
 40
1.800000000000181
  0
CIRCLE
  5
227
330
4E3
100
AcDbEntity
  8
DATA
  6
Continuous
 62
     7
100
AcDbCircle
 10
-432.7499999999999
 20
-251.0
 30
0.0
 40
2.65000000000009
  0
LINE
  5
228
330
4E3
100
AcDbEntity
  8
DATA
  6
Continuous
 62
     7
100
AcDbLine
 10
-433.2226618517962
 20
-252.1411066530226
 30
0.0
 11
-432.2773381482039
 21
-252.1411066530226
 31
0.0
  0
LINE
  5
229
330
4E3
100
AcDbEntity
  8
DATA
  6
Continuous
 62
     7
100
AcDbLine
 10
-433.8911066530226
 20
-251.4726618517961
 30
0.0
 11
-433.2226618517962
 21
-252.1411066530226
 31
0.0
  0
LINE
  5
22A
330
4E3
100
AcDbEntity
  8
DATA
  6
Continuous
 62
     7
100
AcDbLine
 10
-433.8911066530226
 20
-250.5273381482039
 30
0.0
 11
-433.8911066530226
 21
-251.4726618517961
 31
0.0
  0
LINE
  5
22B
330
4E3
100
AcDbEntity
  8
DATA
  6
Continuous
 62
     7
100
AcDbLine
 10
-433.2226618517962
 20
-249.8588933469774
 30
0.0
 11
-433.8911066530226
 21
-250.5273381482039
 31
0.0
  0
LINE
  5
22C
330
4E3
100
AcDbEntity
  8
DATA
  6
Continuous
 62
     7
100
AcDbLine
 10
-432.2773381482039
 20
-249.8588933469774
 30
0.0
 11
-433.2226618517962
 21
-249.8588933469774
 31
0.0
  0
LINE
  5
22D
330
4E3
100
AcDbEntity
  8
DATA
  6
Continuous
 62
     7
100
AcDbLine
 10
-431.6088933469772
 20
-250.5273381482039
 30
0.0
 11
-432.2773381482039
 21
-249.8588933469774
 31
0.0
  0
LINE
  5
22E
330
4E3
100
AcDbEntity
  8
DATA
  6
Continuous
 62
     7
100
AcDbLine
 10
-431.6088933469772
 20
-251.4726618517961
 30
0.0
 11
-431.6088933469772
 21
-250.5273381482039
 31
0.0
  0
LINE
  5
22F
330
4E3
100
AcDbEntity
  8
DATA
  6
Continuous
 62
     7
100
AcDbLine
 10
-432.2773381482039
 20
-252.1411066530226
 30
0.0
 11
-431.6088933469772
 21
-251.4726618517961
 31
0.0
  0
TEXT
  5
230
330
4E3
100
AcDbEntity
  8
DATA
 62
     7
100
AcDbText
 10
-429.2259060923293
 20
-266.8113095019587
 30
0.0
 40
2.443262228454186
  1
MONO SUM
 50
180.0
 41
0.7
 11
-429.2259060923293
 21
-269.2545717304128
 31
0.0
100
AcDbText
 73
     3
  0
TEXT
  5
231
330
4E3
100
AcDbEntity
  8
DATA
 62
     7
100
AcDbText
 10
-429.1707924400988
 20
-233.2986662074327
 30
0.0
 40
2.443262228454186
  1
MONO SUM
 50
180.0
 41
0.7
 11
-429.1707924400988
 21
-235.7419284358869
 31
0.0
100
AcDbText
 73
     3
  0
LINE
  5
232
330
4E3
100
AcDbEntity
  8
DATA
  6
Continuous
 62
     7
100
AcDbLine
 10
-416.3835127974116
 20
-239.9041804046191
 30
0.0
 11
-401.3835127974111
 21
-239.9041804046191
 31
0.0
  0
LWPOLYLINE
  5
233
330
4E3
100
AcDbEntity
  8
DATA
  6
Continuous
 62
     7
100
AcDbPolyline
 90
        4
 70
     1
 43
0.0
 10
-414.3835127974116
 20
-235.4041804046191
 10
-413.3835127974116
 20
-235.4041804046191
 10
-413.3835127974116
 20
-236.4041804046191
 10
-414.3835127974116
 20
-236.4041804046191
  0
LWPOLYLINE
  5
23A
330
4E3
100
AcDbEntity
  8
DATA
  6
Continuous
 62
     7
100
AcDbPolyline
 90
        4
 70
     1
 43
0.0
 10
-409.3835127974116
 20
-235.4041804046191
 10
-408.3835127974116
 20
-235.4041804046191
 10
-408.3835127974116
 20
-236.4041804046191
 10
-409.3835127974116
 20
-236.4041804046191
  0
LWPOLYLINE
  5
241
330
4E3
100
AcDbEntity
  8
DATA
  6
Continuous
 62
     7
100
AcDbPolyline
 90
        4
 70
     1
 43
0.0
 10
-404.3835127974116
 20
-235.4041804046191
 10
-403.3835127974116
 20
-235.4041804046191
 10
-403.3835127974116
 20
-236.4041804046191
 10
-404.3835127974116
 20
-236.4041804046191
  0
ARC
  5
248
330
4E3
100
AcDbEntity
  8
DATA
  6
Continuous
 62
     7
100
AcDbCircle
 10
-413.8835127974111
 20
-236.5291804046191
 30
0.0
 40
3.625
100
AcDbArc
 50
46.39718102729637
 51
133.6028189727036
  0
ARC
  5
249
330
4E3
100
AcDbEntity
  8
DATA
  6
Continuous
 62
     7
100
AcDbCircle
 10
-408.8835127974111
 20
-236.5291804046191
 30
0.0
 40
3.625
100
AcDbArc
 50
46.39718102729637
 51
133.6028189727036
  0
ARC
  5
24A
330
4E3
100
AcDbEntity
  8
DATA
  6
Continuous
 62
     7
100
AcDbCircle
 10
-403.8835127974111
 20
-236.5291804046191
 30
0.0
 40
3.625
100
AcDbArc
 50
46.39718102729637
 51
133.6028189727036
  0
LINE
  5
24B
330
4E3
100
AcDbEntity
  8
DATA
  6
Continuous
 62
     7
100
AcDbLine
 10
-401.3835127974111
 20
-233.4041804046191
 30
0.0
 11
-401.3835127974111
 21
-240.4041804046191
 31
0.0
  0
ARC
  5
24C
330
4E3
100
AcDbEntity
  8
DATA
  6
Continuous
 62
     7
100
AcDbCircle
 10
-413.8835127974111
 20
-236.0291804046191
 30
0.0
 40
3.625
100
AcDbArc
 50
46.39718102729637
 51
133.6028189727036
  0
ARC
  5
24D
330
4E3
100
AcDbEntity
  8
DATA
  6
Continuous
 62
     7
100
AcDbCircle
 10
-408.8835127974111
 20
-236.0291804046191
 30
0.0
 40
3.625
100
AcDbArc
 50
46.39718102729637
 51
133.6028189727036
  0
ARC
  5
24E
330
4E3
100
AcDbEntity
  8
DATA
  6
Continuous
 62
     7
100
AcDbCircle
 10
-403.8835127974111
 20
-236.0291804046191
 30
0.0
 40
3.625
100
AcDbArc
 50
46.39718102729637
 51
133.6028189727036
  0
LINE
  5
24F
330
4E3
100
AcDbEntity
  8
DATA
  6
Continuous
 62
     7
100
AcDbLine
 10
-416.3835127974116
 20
-240.4041804046191
 30
0.0
 11
-401.3835127974111
 21
-240.4041804046191
 31
0.0
  0
LINE
  5
250
330
4E3
100
AcDbEntity
  8
DATA
  6
Continuous
 62
     7
100
AcDbLine
 10
-416.3835127974116
 20
-233.4041804046191
 30
0.0
 11
-416.3835127974116
 21
-240.4041804046191
 31
0.0
  0
LINE
  5
251
330
4E3
100
AcDbEntity
  8
DATA
  6
Continuous
 62
     7
100
AcDbLine
 10
-399.8835127974112
 20
-232.0287121753862
 30
0.0
 11
-399.8835127974112
 21
-245.9451025238224
 31
0.0
  0
LINE
  5
252
330
4E3
100
AcDbEntity
  8
DATA
  6
Continuous
 62
     7
100
AcDbLine
 10
-417.8835127974111
 20
-232.0287121753862
 30
0.0
 11
-399.8835127974112
 21
-232.0287121753862
 31
0.0
  0
LINE
  5
253
330
4E3
100
AcDbEntity
  8
DATA
  6
Continuous
 62
     7
100
AcDbLine
 10
-417.8835127974111
 20
-245.9451025238224
 30
0.0
 11
-417.8835127974111
 21
-232.0287121753862
 31
0.0
  0
LINE
  5
254
330
4E3
100
AcDbEntity
  8
DATA
  6
Continuous
 62
     7
100
AcDbLine
 10
-406.0835127974113
 20
-248.76567483606
 30
0.0
 11
-411.6835127974113
 21
-248.76567483606
 31
0.0
  0
LINE
  5
255
330
4E3
100
AcDbEntity
  8
DATA
  6
Continuous
 62
     7
100
AcDbLine
 10
-406.0835127974113
 20
-245.9451025238224
 30
0.0
 11
-406.0835127974113
 21
-248.76567483606
 31
0.0
  0
LINE
  5
256
330
4E3
100
AcDbEntity
  8
DATA
  6
Continuous
 62
     7
100
AcDbLine
 10
-411.6835127974113
 20
-248.76567483606
 30
0.0
 11
-411.6835127974113
 21
-245.9451025238224
 31
0.0
  0
LINE
  5
257
330
4E3
100
AcDbEntity
  8
DATA
  6
Continuous
 62
     7
100
AcDbLine
 10
-417.8835127974111
 20
-245.9451025238224
 30
0.0
 11
-411.6835127974113
 21
-245.9451025238224
 31
0.0
  0
LINE
  5
258
330
4E3
100
AcDbEntity
  8
DATA
  6
Continuous
 62
     7
100
AcDbLine
 10
-406.0835127974113
 20
-245.9451025238224
 30
0.0
 11
-399.8835127974112
 21
-245.9451025238224
 31
0.0
  0
LINE
  5
259
330
4E3
100
AcDbEntity
  8
DATA
  6
Continuous
 62
     7
100
AcDbLine
 10
-406.3774070459117
 20
-245.5740356452981
 30
0.0
 11
-406.3774070459117
 21
-248.5740356452982
 31
0.0
  0
LINE
  5
25A
330
4E3
100
AcDbEntity
  8
DATA
  6
Continuous
 62
     7
100
AcDbLine
 10
-409.3774070459117
 20
-245.5740356452981
 30
0.0
 11
-406.3774070459117
 21
-245.5740356452981
 31
0.0
  0
LINE
  5
25B
330
4E3
100
AcDbEntity
  8
DATA
  6
Continuous
 62
     7
100
AcDbLine
 10
-409.3774070459117
 20
-248.5740356452982
 30
0.0
 11
-409.3774070459117
 21
-245.5740356452981
 31
0.0
  0
LINE
  5
25C
330
4E3
100
AcDbEntity
  8
DATA
  6
Continuous
 62
     7
100
AcDbLine
 10
-406.3774070459117
 20
-248.5740356452982
 30
0.0
 11
-409.3774070459117
 21
-248.5740356452982
 31
0.0
  0
TEXT
  5
25D
330
4E3
100
AcDbEntity
  8
DATA
 62
     7
100
AcDbText
 10
-401.1961919484337
 20
-246.3669317802729
 30
0.0
 40
1.628841485636124
  1
LINE
 50
180.0
 41
0.7
 11
-401.1961919484337
 21
-247.995773265909
 31
0.0
100
AcDbText
 73
     3
  0
TEXT
  5
25E
330
4E3
100
AcDbEntity
  8
DATA
 62
     7
100
AcDbText
 10
-412.3779666763752
 20
-246.3669317802729
 30
0.0
 40
1.628841485636124
  1
MIC
 50
180.0
 41
0.7
 11
-412.3779666763752
 21
-247.995773265909
 31
0.0
100
AcDbText
 73
     3
  0
LINE
  5
25F
330
4E3
100
AcDbEntity
  8
DATA
  6
Continuous
 62
     7
100
AcDbLine
 10
-407.1909709769628
 20
-245.5740356452981
 30
0.0
 11
-407.1909709769628
 21
-248.5740356452982
 31
0.0
  0
LINE
  5
260
330
4E3
100
AcDbEntity
  8
DATA
  6
Continuous
 62
     7
100
AcDbLine
 10
-407.8909709769628
 20
-245.5740356452981
 30
0.0
 11
-407.8909709769628
 21
-248.5740356452982
 31
0.0
  0
LINE
  5
261
330
4E3
100
AcDbEntity
  8
DATA
  6
Continuous
 62
     7
100
AcDbLine
 10
-408.5909709769626
 20
-245.5740356452981
 30
0.0
 11
-408.5909709769626
 21
-248.5740356452982
 31
0.0
  0
TEXT
  5
262
330
4E3
100
AcDbEntity
  8
DATA
 62
     7
100
AcDbText
 10
-398.9899015573825
 20
-231.6869723625337
 30
0.0
 40
1.628841485636124
  1
CH4 INPUT
 50
270.0
 41
0.7
 11
-397.3610600717464
 21
-231.6869723625337
 31
0.0
100
AcDbText
 73
     3
  0
LINE
  5
263
330
4E3
100
AcDbEntity
  8
DATA
  6
Continuous
 62
     7
100
AcDbLine
 10
-416.3835127974116
 20
-260.3041804046191
 30
0.0
 11
-401.3835127974111
 21
-260.3041804046191
 31
0.0
  0
LWPOLYLINE
  5
264
330
4E3
100
AcDbEntity
  8
DATA
  6
Continuous
 62
     7
100
AcDbPolyline
 90
        4
 70
     1
 43
0.0
 10
-414.3835127974116
 20
-255.804180404619
 10
-413.3835127974116
 20
-255.804180404619
 10
-413.3835127974116
 20
-256.804180404619
 10
-414.3835127974116
 20
-256.804180404619
  0
LWPOLYLINE
  5
26B
330
4E3
100
AcDbEntity
  8
DATA
  6
Continuous
 62
     7
100
AcDbPolyline
 90
        4
 70
     1
 43
0.0
 10
-409.3835127974116
 20
-255.804180404619
 10
-408.3835127974116
 20
-255.804180404619
 10
-408.3835127974116
 20
-256.804180404619
 10
-409.3835127974116
 20
-256.804180404619
  0
LWPOLYLINE
  5
272
330
4E3
100
AcDbEntity
  8
DATA
  6
Continuous
 62
     7
100
AcDbPolyline
 90
        4
 70
     1
 43
0.0
 10
-404.3835127974116
 20
-255.804180404619
 10
-403.3835127974116
 20
-255.804180404619
 10
-403.3835127974116
 20
-256.804180404619
 10
-404.3835127974116
 20
-256.804180404619
  0
ARC
  5
279
330
4E3
100
AcDbEntity
  8
DATA
  6
Continuous
 62
     7
100
AcDbCircle
 10
-413.8835127974111
 20
-256.9291804046191
 30
0.0
 40
3.625
100
AcDbArc
 50
46.39718102729637
 51
133.6028189727036
  0
ARC
  5
27A
330
4E3
100
AcDbEntity
  8
DATA
  6
Continuous
 62
     7
100
AcDbCircle
 10
-408.8835127974111
 20
-256.9291804046191
 30
0.0
 40
3.625
100
AcDbArc
 50
46.39718102729637
 51
133.6028189727036
  0
ARC
  5
27B
330
4E3
100
AcDbEntity
  8
DATA
  6
Continuous
 62
     7
100
AcDbCircle
 10
-403.8835127974111
 20
-256.9291804046191
 30
0.0
 40
3.625
100
AcDbArc
 50
46.39718102729637
 51
133.6028189727036
  0
LINE
  5
27C
330
4E3
100
AcDbEntity
  8
DATA
  6
Continuous
 62
     7
100
AcDbLine
 10
-401.3835127974111
 20
-253.804180404619
 30
0.0
 11
-401.3835127974111
 21
-260.8041804046191
 31
0.0
  0
ARC
  5
27D
330
4E3
100
AcDbEntity
  8
DATA
  6
Continuous
 62
     7
100
AcDbCircle
 10
-413.8835127974111
 20
-256.429180404619
 30
0.0
 40
3.625
100
AcDbArc
 50
46.39718102729637
 51
133.6028189727036
  0
ARC
  5
27E
330
4E3
100
AcDbEntity
  8
DATA
  6
Continuous
 62
     7
100
AcDbCircle
 10
-408.8835127974111
 20
-256.429180404619
 30
0.0
 40
3.625
100
AcDbArc
 50
46.39718102729637
 51
133.6028189727036
  0
ARC
  5
27F
330
4E3
100
AcDbEntity
  8
DATA
  6
Continuous
 62
     7
100
AcDbCircle
 10
-403.8835127974111
 20
-256.429180404619
 30
0.0
 40
3.625
100
AcDbArc
 50
46.39718102729637
 51
133.6028189727036
  0
LINE
  5
280
330
4E3
100
AcDbEntity
  8
DATA
  6
Continuous
 62
     7
100
AcDbLine
 10
-416.3835127974116
 20
-260.8041804046191
 30
0.0
 11
-401.3835127974111
 21
-260.8041804046191
 31
0.0
  0
LINE
  5
281
330
4E3
100
AcDbEntity
  8
DATA
  6
Continuous
 62
     7
100
AcDbLine
 10
-416.3835127974116
 20
-253.804180404619
 30
0.0
 11
-416.3835127974116
 21
-260.8041804046191
 31
0.0
  0
LINE
  5
282
330
4E3
100
AcDbEntity
  8
DATA
  6
Continuous
 62
     7
100
AcDbLine
 10
-399.8835127974112
 20
-252.4287121753861
 30
0.0
 11
-399.8835127974112
 21
-266.3451025238224
 31
0.0
  0
LINE
  5
283
330
4E3
100
AcDbEntity
  8
DATA
  6
Continuous
 62
     7
100
AcDbLine
 10
-417.8835127974111
 20
-252.4287121753861
 30
0.0
 11
-399.8835127974112
 21
-252.4287121753861
 31
0.0
  0
LINE
  5
284
330
4E3
100
AcDbEntity
  8
DATA
  6
Continuous
 62
     7
100
AcDbLine
 10
-417.8835127974111
 20
-266.3451025238224
 30
0.0
 11
-417.8835127974111
 21
-252.4287121753861
 31
0.0
  0
LINE
  5
285
330
4E3
100
AcDbEntity
  8
DATA
  6
Continuous
 62
     7
100
AcDbLine
 10
-406.0835127974113
 20
-269.16567483606
 30
0.0
 11
-411.6835127974113
 21
-269.16567483606
 31
0.0
  0
LINE
  5
286
330
4E3
100
AcDbEntity
  8
DATA
  6
Continuous
 62
     7
100
AcDbLine
 10
-406.0835127974113
 20
-266.3451025238224
 30
0.0
 11
-406.0835127974113
 21
-269.16567483606
 31
0.0
  0
LINE
  5
287
330
4E3
100
AcDbEntity
  8
DATA
  6
Continuous
 62
     7
100
AcDbLine
 10
-411.6835127974113
 20
-269.16567483606
 30
0.0
 11
-411.6835127974113
 21
-266.3451025238224
 31
0.0
  0
LINE
  5
288
330
4E3
100
AcDbEntity
  8
DATA
  6
Continuous
 62
     7
100
AcDbLine
 10
-417.8835127974111
 20
-266.3451025238224
 30
0.0
 11
-411.6835127974113
 21
-266.3451025238224
 31
0.0
  0
LINE
  5
289
330
4E3
100
AcDbEntity
  8
DATA
  6
Continuous
 62
     7
100
AcDbLine
 10
-406.0835127974113
 20
-266.3451025238224
 30
0.0
 11
-399.8835127974112
 21
-266.3451025238224
 31
0.0
  0
LINE
  5
28A
330
4E3
100
AcDbEntity
  8
DATA
  6
Continuous
 62
     7
100
AcDbLine
 10
-406.3774070459117
 20
-265.9740356452982
 30
0.0
 11
-406.3774070459117
 21
-268.9740356452982
 31
0.0
  0
LINE
  5
28B
330
4E3
100
AcDbEntity
  8
DATA
  6
Continuous
 62
     7
100
AcDbLine
 10
-409.3774070459117
 20
-265.9740356452982
 30
0.0
 11
-406.3774070459117
 21
-265.9740356452982
 31
0.0
  0
LINE
  5
28C
330
4E3
100
AcDbEntity
  8
DATA
  6
Continuous
 62
     7
100
AcDbLine
 10
-409.3774070459117
 20
-268.9740356452982
 30
0.0
 11
-409.3774070459117
 21
-265.9740356452982
 31
0.0
  0
LINE
  5
28D
330
4E3
100
AcDbEntity
  8
DATA
  6
Continuous
 62
     7
100
AcDbLine
 10
-406.3774070459117
 20
-268.9740356452982
 30
0.0
 11
-409.3774070459117
 21
-268.9740356452982
 31
0.0
  0
TEXT
  5
28E
330
4E3
100
AcDbEntity
  8
DATA
 62
     7
100
AcDbText
 10
-401.1961919484337
 20
-266.7669317802729
 30
0.0
 40
1.628841485636124
  1
LINE
 50
180.0
 41
0.7
 11
-401.1961919484337
 21
-268.3957732659091
 31
0.0
100
AcDbText
 73
     3
  0
TEXT
  5
28F
330
4E3
100
AcDbEntity
  8
DATA
 62
     7
100
AcDbText
 10
-412.3779666763752
 20
-266.7669317802729
 30
0.0
 40
1.628841485636124
  1
MIC
 50
180.0
 41
0.7
 11
-412.3779666763752
 21
-268.3957732659091
 31
0.0
100
AcDbText
 73
     3
  0
LINE
  5
290
330
4E3
100
AcDbEntity
  8
DATA
  6
Continuous
 62
     7
100
AcDbLine
 10
-407.1909709769628
 20
-265.9740356452982
 30
0.0
 11
-407.1909709769628
 21
-268.9740356452982
 31
0.0
  0
LINE
  5
291
330
4E3
100
AcDbEntity
  8
DATA
  6
Continuous
 62
     7
100
AcDbLine
 10
-407.8909709769628
 20
-265.9740356452982
 30
0.0
 11
-407.8909709769628
 21
-268.9740356452982
 31
0.0
  0
LINE
  5
292
330
4E3
100
AcDbEntity
  8
DATA
  6
Continuous
 62
     7
100
AcDbLine
 10
-408.5909709769626
 20
-265.9740356452982
 30
0.0
 11
-408.5909709769626
 21
-268.9740356452982
 31
0.0
  0
TEXT
  5
293
330
4E3
100
AcDbEntity
  8
DATA
 62
     7
100
AcDbText
 10
-398.9899015573825
 20
-252.0869723625337
 30
0.0
 40
1.628841485636124
  1
CH3 INPUT
 50
270.0
 41
0.7
 11
-397.3610600717464
 21
-252.0869723625337
 31
0.0
100
AcDbText
 73
     3
  0
CIRCLE
  5
294
330
4E3
100
AcDbEntity
  8
DATA
  6
Continuous
 62
     7
100
AcDbCircle
 10
-419.4473862254149
 20
-270.4368853021926
 30
0.0
 40
0.5
  0
CIRCLE
  5
295
330
4E3
100
AcDbEntity
  8
DATA
  6
Continuous
 62
     7
100
AcDbCircle
 10
-421.6473862254146
 20
-270.4368853021926
 30
0.0
 40
0.5
  0
CIRCLE
  5
296
330
4E3
100
AcDbEntity
  8
DATA
  6
Continuous
 62
     7
100
AcDbCircle
 10
-423.8473862254149
 20
-270.4368853021926
 30
0.0
 40
0.5
  0
LINE
  5
297
330
4E3
100
AcDbEntity
  8
DATA
  6
Continuous
 62
     7
100
AcDbLine
 10
-421.0833650708647
 20
-268.961618538297
 30
0.0
 11
-422.1270362293139
 21
-268.961618538297
 31
0.0
  0
LINE
  5
298
330
4E3
100
AcDbEntity
  8
DATA
  6
Continuous
 62
     7
100
AcDbLine
 10
-421.6052006500895
 20
-269.4834541175217
 30
0.0
 11
-421.6052006500895
 21
-268.4397829590722
 31
0.0
  0
LINE
  5
299
330
4E3
100
AcDbEntity
  8
DATA
  6
Continuous
 62
     7
100
AcDbLine
 10
-423.4134038182951
 20
-268.961618538297
 30
0.0
 11
-424.4570749767445
 21
-268.961618538297
 31
0.0
  0
LINE
  5
29A
330
4E3
100
AcDbEntity
  8
DATA
  6
Continuous
 62
     7
100
AcDbLine
 10
-418.9425981993517
 20
-268.7483717354099
 30
0.0
 11
-419.9862693578015
 21
-268.7483717354099
 31
0.0
  0
LINE
  5
29B
330
4E3
100
AcDbEntity
  8
DATA
  6
Continuous
 62
     7
100
AcDbLine
 10
-419.4644337785767
 20
-268.7483717354099
 30
0.0
 11
-419.288117460162
 21
-268.4429829137123
 31
0.0
  0
LINE
  5
29C
330
4E3
100
AcDbEntity
  8
DATA
  6
Continuous
 62
     7
100
AcDbLine
 10
-419.0744337727651
 20
-268.7483717354099
 30
0.0
 11
-418.8981174543505
 21
-268.4429829137123
 31
0.0
  0
LINE
  5
29D
330
4E3
100
AcDbEntity
  8
DATA
  6
Continuous
 62
     7
100
AcDbLine
 10
-419.8544337785766
 20
-268.7483717354099
 30
0.0
 11
-419.6781174601619
 21
-268.4429829137123
 31
0.0
  0
LINE
  5
29E
330
4E3
100
AcDbEntity
  8
DATA
  6
Continuous
 62
     7
100
AcDbLine
 10
-419.4644337785767
 20
-268.7483717354099
 30
0.0
 11
-419.4644337785767
 21
-269.7883717354098
 31
0.0
  0
CIRCLE
  5
29F
330
4E3
100
AcDbEntity
  8
DATA
  6
Continuous
 62
     7
100
AcDbCircle
 10
-419.4473862254149
 20
-232.3068024587789
 30
0.0
 40
0.5
  0
CIRCLE
  5
2A0
330
4E3
100
AcDbEntity
  8
DATA
  6
Continuous
 62
     7
100
AcDbCircle
 10
-421.6473862254146
 20
-232.3068024587789
 30
0.0
 40
0.5
  0
CIRCLE
  5
2A1
330
4E3
100
AcDbEntity
  8
DATA
  6
Continuous
 62
     7
100
AcDbCircle
 10
-423.8473862254149
 20
-232.3068024587789
 30
0.0
 40
0.5
  0
LINE
  5
2A2
330
4E3
100
AcDbEntity
  8
DATA
  6
Continuous
 62
     7
100
AcDbLine
 10
-421.1312745016062
 20
-233.849829831585
 30
0.0
 11
-422.1749456600554
 21
-233.849829831585
 31
0.0
  0
LINE
  5
2A3
330
4E3
100
AcDbEntity
  8
DATA
  6
Continuous
 62
     7
100
AcDbLine
 10
-421.6531100808305
 20
-234.3716654108097
 30
0.0
 11
-421.6531100808305
 21
-233.3279942523603
 31
0.0
  0
LINE
  5
2A4
330
4E3
100
AcDbEntity
  8
DATA
  6
Continuous
 62
     7
100
AcDbLine
 10
-423.4613132490363
 20
-233.849829831585
 30
0.0
 11
-424.5049844074856
 21
-233.849829831585
 31
0.0
  0
LINE
  5
2A5
330
4E3
100
AcDbEntity
  8
DATA
  6
Continuous
 62
     7
100
AcDbLine
 10
-418.9905076300934
 20
-233.6365830286978
 30
0.0
 11
-420.0341787885427
 21
-233.6365830286978
 31
0.0
  0
LINE
  5
2A6
330
4E3
100
AcDbEntity
  8
DATA
  6
Continuous
 62
     7
100
AcDbLine
 10
-419.5123432093177
 20
-233.6365830286978
 30
0.0
 11
-419.3360268909037
 21
-233.3311942070003
 31
0.0
  0
LINE
  5
2A7
330
4E3
100
AcDbEntity
  8
DATA
  6
Continuous
 62
     7
100
AcDbLine
 10
-419.1223432035068
 20
-233.6365830286978
 30
0.0
 11
-418.946026885092
 21
-233.3311942070003
 31
0.0
  0
LINE
  5
2A8
330
4E3
100
AcDbEntity
  8
DATA
  6
Continuous
 62
     7
100
AcDbLine
 10
-419.9023432093181
 20
-233.6365830286978
 30
0.0
 11
-419.7260268909034
 21
-233.3311942070003
 31
0.0
  0
LINE
  5
2A9
330
4E3
100
AcDbEntity
  8
DATA
  6
Continuous
 62
     7
100
AcDbLine
 10
-419.5123432093177
 20
-233.6365830286978
 30
0.0
 11
-419.5123432093177
 21
-234.6765830286979
 31
0.0
  0
LINE
  5
2AA
330
4E3
100
AcDbEntity
  8
DATA
  6
Continuous
 62
     7
100
AcDbLine
 10
-393.0
 20
-233.2362801395783
 30
0.0
 11
-393.0
 21
-248.7362801395783
 31
0.0
  0
LINE
  5
2AB
330
4E3
100
AcDbEntity
  8
DATA
  6
Continuous
 62
     7
100
AcDbLine
 10
-378.0
 20
-233.2362801395783
 30
0.0
 11
-378.0
 21
-248.7362801395783
 31
0.0
  0
LINE
  5
2AC
330
4E3
100
AcDbEntity
  8
DATA
  6
Continuous
 62
     7
100
AcDbLine
 10
-378.0
 20
-233.2362801395783
 30
0.0
 11
-393.0
 21
-233.2362801395783
 31
0.0
  0
LINE
  5
2AD
330
4E3
100
AcDbEntity
  8
DATA
  6
Continuous
 62
     7
100
AcDbLine
 10
-378.0
 20
-248.7362801395783
 30
0.0
 11
-393.0
 21
-248.7362801395783
 31
0.0
  0
TEXT
  5
2AE
330
4E3
100
AcDbEntity
  8
DATA
 62
     7
100
AcDbText
 10
-375.2094948168288
 20
-249.5356145901258
 30
0.0
 40
2.443262228454186
  1
CSR-V ONLY
 50
180.0
 41
0.7
 11
-375.2094948168288
 21
-251.97887681858
 31
0.0
100
AcDbText
 73
     3
  0
LINE
  5
2AF
330
4E3
100
AcDbEntity
  8
DATA
  6
Continuous
 62
     7
100
AcDbLine
 10
-390.5999999999999
 20
-258.4151585309697
 30
0.0
 11
-390.5999999999999
 21
-264.0151585309697
 31
0.0
  0
LINE
  5
2B0
330
4E3
100
AcDbEntity
  8
DATA
  6
Continuous
 62
     7
100
AcDbLine
 10
-394.4000000000001
 20
-258.4151585309697
 30
0.0
 11
-390.5999999999999
 21
-258.4151585309697
 31
0.0
  0
LINE
  5
2B1
330
4E3
100
AcDbEntity
  8
DATA
  6
Continuous
 62
     7
100
AcDbLine
 10
-394.4000000000001
 20
-264.0151585309697
 30
0.0
 11
-394.4000000000001
 21
-258.4151585309697
 31
0.0
  0
LINE
  5
2B2
330
4E3
100
AcDbEntity
  8
DATA
  6
Continuous
 62
     7
100
AcDbLine
 10
-390.5999999999999
 20
-264.0151585309697
 30
0.0
 11
-394.4000000000001
 21
-264.0151585309697
 31
0.0
  0
LINE
  5
2B3
330
4E3
100
AcDbEntity
  8
DATA
  6
Continuous
 62
     7
100
AcDbLine
 10
-394.4000000000001
 20
-261.2151585309697
 30
0.0
 11
-390.5999999999999
 21
-261.2151585309697
 31
0.0
  0
LINE
  5
2B4
330
4E3
100
AcDbEntity
  8
DATA
  6
Continuous
 62
     7
100
AcDbLine
 10
-394.4000000000001
 20
-260.5151585309698
 30
0.0
 11
-390.5999999999999
 21
-260.5151585309698
 31
0.0
  0
LINE
  5
2B5
330
4E3
100
AcDbEntity
  8
DATA
  6
Continuous
 62
     7
100
AcDbLine
 10
-394.4000000000001
 20
-259.8151585309697
 30
0.0
 11
-390.5999999999999
 21
-259.8151585309697
 31
0.0
  0
LINE
  5
2B6
330
4E3
100
AcDbEntity
  8
DATA
  6
Continuous
 62
     7
100
AcDbLine
 10
-394.4000000000001
 20
-259.1151585309697
 30
0.0
 11
-390.5999999999999
 21
-259.1151585309697
 31
0.0
  0
LINE
  5
2B7
330
4E3
100
AcDbEntity
  8
DATA
  6
Continuous
 62
     7
100
AcDbLine
 10
-379.5999999999999
 20
-258.4151585309697
 30
0.0
 11
-379.5999999999999
 21
-264.0151585309697
 31
0.0
  0
LINE
  5
2B8
330
4E3
100
AcDbEntity
  8
DATA
  6
Continuous
 62
     7
100
AcDbLine
 10
-383.4000000000001
 20
-258.4151585309697
 30
0.0
 11
-379.5999999999999
 21
-258.4151585309697
 31
0.0
  0
LINE
  5
2B9
330
4E3
100
AcDbEntity
  8
DATA
  6
Continuous
 62
     7
100
AcDbLine
 10
-383.4000000000001
 20
-264.0151585309697
 30
0.0
 11
-383.4000000000001
 21
-258.4151585309697
 31
0.0
  0
LINE
  5
2BA
330
4E3
100
AcDbEntity
  8
DATA
  6
Continuous
 62
     7
100
AcDbLine
 10
-379.5999999999999
 20
-264.0151585309697
 30
0.0
 11
-383.4000000000001
 21
-264.0151585309697
 31
0.0
  0
LINE
  5
2BB
330
4E3
100
AcDbEntity
  8
DATA
  6
Continuous
 62
     7
100
AcDbLine
 10
-383.4000000000001
 20
-261.2151585309697
 30
0.0
 11
-379.5999999999999
 21
-261.2151585309697
 31
0.0
  0
LINE
  5
2BC
330
4E3
100
AcDbEntity
  8
DATA
  6
Continuous
 62
     7
100
AcDbLine
 10
-383.4000000000001
 20
-260.5151585309698
 30
0.0
 11
-379.5999999999999
 21
-260.5151585309698
 31
0.0
  0
LINE
  5
2BD
330
4E3
100
AcDbEntity
  8
DATA
  6
Continuous
 62
     7
100
AcDbLine
 10
-383.4000000000001
 20
-259.8151585309697
 30
0.0
 11
-379.5999999999999
 21
-259.8151585309697
 31
0.0
  0
LINE
  5
2BE
330
4E3
100
AcDbEntity
  8
DATA
  6
Continuous
 62
     7
100
AcDbLine
 10
-383.4000000000001
 20
-259.1151585309697
 30
0.0
 11
-379.5999999999999
 21
-259.1151585309697
 31
0.0
  0
TEXT
  5
2BF
330
4E3
100
AcDbEntity
  8
DATA
 62
     7
100
AcDbText
 10
-377.9403296319683
 20
-268.6318681556927
 30
0.0
 40
2.443262228454186
  1
70HZ
 50
180.0
 41
0.7
 11
-377.9403296319683
 21
-271.0751303841469
 31
0.0
100
AcDbText
 73
     3
  0
TEXT
  5
2C0
330
4E3
100
AcDbEntity
  8
DATA
 62
     7
100
AcDbText
 10
-378.8745624177309
 20
-265.3444119139195
 30
0.0
 40
2.443262228454186
  1
HPF
 50
180.0
 41
0.7
 11
-378.8745624177309
 21
-267.7876741423737
 31
0.0
100
AcDbText
 73
     3
  0
TEXT
  5
2C1
330
4E3
100
AcDbEntity
  8
DATA
 62
     7
100
AcDbText
 10
-386.6068520659657
 20
-267.0668286171502
 30
0.0
 40
2.443262228454186
  1
PHANTOM
 50
180.0
 41
0.7
 11
-386.6068520659657
 21
-269.5100908456044
 31
0.0
100
AcDbText
 73
     3
  0
LINE
  5
2C2
330
4E3
100
AcDbEntity
  8
DATA
  6
Continuous
 62
     7
100
AcDbLine
 10
-369.3835127974117
 20
-239.9041804046191
 30
0.0
 11
-354.3835127974112
 21
-239.9041804046191
 31
0.0
  0
LWPOLYLINE
  5
2C3
330
4E3
100
AcDbEntity
  8
DATA
  6
Continuous
 62
     7
100
AcDbPolyline
 90
        4
 70
     1
 43
0.0
 10
-367.3835127974117
 20
-235.4041804046191
 10
-366.3835127974116
 20
-235.4041804046191
 10
-366.3835127974116
 20
-236.4041804046191
 10
-367.3835127974117
 20
-236.4041804046191
  0
LWPOLYLINE
  5
2CA
330
4E3
100
AcDbEntity
  8
DATA
  6
Continuous
 62
     7
100
AcDbPolyline
 90
        4
 70
     1
 43
0.0
 10
-362.3835127974116
 20
-235.4041804046191
 10
-361.3835127974116
 20
-235.4041804046191
 10
-361.3835127974116
 20
-236.4041804046191
 10
-362.3835127974116
 20
-236.4041804046191
  0
LWPOLYLINE
  5
2D1
330
4E3
100
AcDbEntity
  8
DATA
  6
Continuous
 62
     7
100
AcDbPolyline
 90
        4
 70
     1
 43
0.0
 10
-357.3835127974116
 20
-235.4041804046191
 10
-356.3835127974116
 20
-235.4041804046191
 10
-356.3835127974116
 20
-236.4041804046191
 10
-357.3835127974116
 20
-236.4041804046191
  0
ARC
  5
2D8
330
4E3
100
AcDbEntity
  8
DATA
  6
Continuous
 62
     7
100
AcDbCircle
 10
-366.8835127974112
 20
-236.5291804046191
 30
0.0
 40
3.625
100
AcDbArc
 50
46.39718102729637
 51
133.6028189727036
  0
ARC
  5
2D9
330
4E3
100
AcDbEntity
  8
DATA
  6
Continuous
 62
     7
100
AcDbCircle
 10
-361.8835127974112
 20
-236.5291804046191
 30
0.0
 40
3.625
100
AcDbArc
 50
46.39718102729637
 51
133.6028189727036
  0
ARC
  5
2DA
330
4E3
100
AcDbEntity
  8
DATA
  6
Continuous
 62
     7
100
AcDbCircle
 10
-356.8835127974112
 20
-236.5291804046191
 30
0.0
 40
3.625
100
AcDbArc
 50
46.39718102729637
 51
133.6028189727036
  0
LINE
  5
2DB
330
4E3
100
AcDbEntity
  8
DATA
  6
Continuous
 62
     7
100
AcDbLine
 10
-354.3835127974112
 20
-233.4041804046191
 30
0.0
 11
-354.3835127974112
 21
-240.4041804046191
 31
0.0
  0
ARC
  5
2DC
330
4E3
100
AcDbEntity
  8
DATA
  6
Continuous
 62
     7
100
AcDbCircle
 10
-366.8835127974112
 20
-236.0291804046191
 30
0.0
 40
3.625
100
AcDbArc
 50
46.39718102729637
 51
133.6028189727036
  0
ARC
  5
2DD
330
4E3
100
AcDbEntity
  8
DATA
  6
Continuous
 62
     7
100
AcDbCircle
 10
-361.8835127974112
 20
-236.0291804046191
 30
0.0
 40
3.625
100
AcDbArc
 50
46.39718102729637
 51
133.6028189727036
  0
ARC
  5
2DE
330
4E3
100
AcDbEntity
  8
DATA
  6
Continuous
 62
     7
100
AcDbCircle
 10
-356.8835127974112
 20
-236.0291804046191
 30
0.0
 40
3.625
100
AcDbArc
 50
46.39718102729637
 51
133.6028189727036
  0
LINE
  5
2DF
330
4E3
100
AcDbEntity
  8
DATA
  6
Continuous
 62
     7
100
AcDbLine
 10
-369.3835127974117
 20
-240.4041804046191
 30
0.0
 11
-354.3835127974112
 21
-240.4041804046191
 31
0.0
  0
LINE
  5
2E0
330
4E3
100
AcDbEntity
  8
DATA
  6
Continuous
 62
     7
100
AcDbLine
 10
-369.3835127974117
 20
-233.4041804046191
 30
0.0
 11
-369.3835127974117
 21
-240.4041804046191
 31
0.0
  0
LINE
  5
2E1
330
4E3
100
AcDbEntity
  8
DATA
  6
Continuous
 62
     7
100
AcDbLine
 10
-352.8835127974112
 20
-232.0287121753862
 30
0.0
 11
-352.8835127974112
 21
-244.5287121753862
 31
0.0
  0
LINE
  5
2E2
330
4E3
100
AcDbEntity
  8
DATA
  6
Continuous
 62
     7
100
AcDbLine
 10
-370.8835127974112
 20
-232.0287121753862
 30
0.0
 11
-352.8835127974112
 21
-232.0287121753862
 31
0.0
  0
LINE
  5
2E3
330
4E3
100
AcDbEntity
  8
DATA
  6
Continuous
 62
     7
100
AcDbLine
 10
-370.8835127974112
 20
-244.5287121753862
 30
0.0
 11
-370.8835127974112
 21
-232.0287121753862
 31
0.0
  0
TEXT
  5
2E4
330
4E3
100
AcDbEntity
  8
DATA
 62
     7
100
AcDbText
 10
-351.9899015445322
 20
-234.9208543542976
 30
0.0
 40
1.628841485636124
  1
OUT
 50
270.0
 41
0.7
 11
-350.3610600588961
 21
-234.9208543542976
 31
0.0
100
AcDbText
 73
     3
  0
LINE
  5
2E5
330
4E3
100
AcDbEntity
  8
DATA
  6
Continuous
 62
     7
100
AcDbLine
 10
-360.8009424960346
 20
-246.7899554061868
 30
0.0
 11
-362.8882848129337
 21
-246.7899554061868
 31
0.0
  0
LINE
  5
2E6
330
4E3
100
AcDbEntity
  8
DATA
  6
Continuous
 62
     7
100
AcDbLine
 10
-361.8446136544844
 20
-247.8336265646363
 30
0.0
 11
-361.8446136544844
 21
-245.7462842477374
 31
0.0
  0
LINE
  5
2E7
330
4E3
100
AcDbEntity
  8
DATA
  6
Continuous
 62
     7
100
AcDbLine
 10
-365.8922040836992
 20
-246.7899554061868
 30
0.0
 11
-367.9795464005978
 21
-246.7899554061868
 31
0.0
  0
LINE
  5
2E8
330
4E3
100
AcDbEntity
  8
DATA
  6
Continuous
 62
     7
100
AcDbLine
 10
-355.8486779419823
 20
-246.3634618004125
 30
0.0
 11
-357.9360202588805
 21
-246.3634618004125
 31
0.0
  0
LINE
  5
2E9
330
4E3
100
AcDbEntity
  8
DATA
  6
Continuous
 62
     7
100
AcDbLine
 10
-356.8923491004312
 20
-246.3634618004125
 30
0.0
 11
-356.5397164636024
 21
-245.7526841570174
 31
0.0
  0
LINE
  5
2EA
330
4E3
100
AcDbEntity
  8
DATA
  6
Continuous
 62
     7
100
AcDbLine
 10
-356.1123490888085
 20
-246.3634618004125
 30
0.0
 11
-355.7597164519793
 21
-245.7526841570174
 31
0.0
  0
LINE
  5
2EB
330
4E3
100
AcDbEntity
  8
DATA
  6
Continuous
 62
     7
100
AcDbLine
 10
-357.6723491004313
 20
-246.3634618004125
 30
0.0
 11
-357.3197164636022
 21
-245.7526841570174
 31
0.0
  0
LINE
  5
2EC
330
4E3
100
AcDbEntity
  8
DATA
  6
Continuous
 62
     7
100
AcDbLine
 10
-356.8923491004312
 20
-246.3634618004125
 30
0.0
 11
-356.8923491004312
 21
-248.4434618004125
 31
0.0
  0
LINE
  5
2ED
330
4E3
100
AcDbEntity
  8
DATA
  6
Continuous
 62
     7
100
AcDbLine
 10
-370.8835127974112
 20
-244.5287121753862
 30
0.0
 11
-352.8835127974112
 21
-244.5287121753862
 31
0.0
  0
LINE
  5
2EE
330
4E3
100
AcDbEntity
  8
DATA
  6
Continuous
 62
     7
100
AcDbLine
 10
-295.5
 20
-248.5
 30
0.0
 11
-295.5
 21
-264.5
 31
0.0
  0
LINE
  5
2EF
330
4E3
100
AcDbEntity
  8
DATA
  6
Continuous
 62
     7
100
AcDbLine
 10
-326.5
 20
-248.5
 30
0.0
 11
-326.5
 21
-256.5
 31
0.0
  0
LINE
  5
2F0
330
4E3
100
AcDbEntity
  8
DATA
  6
Continuous
 62
     7
100
AcDbLine
 10
-299.0
 20
-268.0
 30
0.0
 11
-323.0
 21
-268.0
 31
0.0
  0
LINE
  5
2F1
330
4E3
100
AcDbEntity
  8
DATA
  6
Continuous
 62
     7
100
AcDbLine
 10
-299.0
 20
-245.0
 30
0.0
 11
-323.0
 21
-245.0
 31
0.0
  0
LINE
  5
2F2
330
4E3
100
AcDbEntity
  8
DATA
  6
Continuous
 62
     7
100
AcDbLine
 10
-300.5
 20
-248.0
 30
0.0
 11
-321.5
 21
-248.0
 31
0.0
  0
LINE
  5
2F3
330
4E3
100
AcDbEntity
  8
DATA
  6
Continuous
 62
     7
100
AcDbLine
 10
-298.5
 20
-260.7500000000001
 30
0.0
 11
-298.5
 21
-250.0
 31
0.0
  0
LINE
  5
2F4
330
4E3
100
AcDbEntity
  8
DATA
  6
Continuous
 62
     7
100
AcDbLine
 10
-323.5
 20
-260.7500000000001
 30
0.0
 11
-323.5
 21
-250.0
 31
0.0
  0
LINE
  5
2F5
330
4E3
100
AcDbEntity
  8
DATA
  6
Continuous
 62
     7
100
AcDbLine
 10
-304.0
 20
-265.0
 30
0.0
 11
-318.0
 21
-265.0
 31
0.0
  0
LINE
  5
2F6
330
4E3
100
AcDbEntity
  8
DATA
  6
Continuous
 62
     7
100
AcDbLine
 10
-304.0
 20
-265.0
 30
0.0
 11
-298.5
 21
-260.75
 31
0.0
  0
LINE
  5
2F7
330
4E3
100
AcDbEntity
  8
DATA
  6
Continuous
 62
     7
100
AcDbLine
 10
-318.0
 20
-265.0
 30
0.0
 11
-323.5
 21
-260.75
 31
0.0
  0
ARC
  5
2F8
330
4E3
100
AcDbEntity
  8
DATA
  6
Continuous
 62
     7
100
AcDbCircle
 10
-300.5
 20
-250.0
 30
0.0
 40
2.0
100
AcDbArc
 50
0.0
 51
90.0
  0
ARC
  5
2F9
330
4E3
100
AcDbEntity
  8
DATA
  6
Continuous
 62
     7
100
AcDbCircle
 10
-321.5
 20
-250.0
 30
0.0
 40
2.0
100
AcDbArc
 50
90.0
 51
180.0
  0
ARC
  5
2FA
330
4E3
100
AcDbEntity
  8
DATA
  6
Continuous
 62
     7
100
AcDbCircle
 10
-299.0
 20
-248.5
 30
0.0
 40
3.5
100
AcDbArc
 50
0.0
 51
90.0
  0
ARC
  5
2FB
330
4E3
100
AcDbEntity
  8
DATA
  6
Continuous
 62
     7
100
AcDbCircle
 10
-323.0
 20
-248.5
 30
0.0
 40
3.5
100
AcDbArc
 50
90.0
 51
180.0
  0
ARC
  5
2FC
330
4E3
100
AcDbEntity
  8
DATA
  6
Continuous
 62
     7
100
AcDbCircle
 10
-323.0
 20
-264.5
 30
0.0
 40
3.5
100
AcDbArc
 50
180.0
 51
270.0
  0
ARC
  5
2FD
330
4E3
100
AcDbEntity
  8
DATA
  6
Continuous
 62
     7
100
AcDbCircle
 10
-299.0
 20
-264.5
 30
0.0
 40
3.5
100
AcDbArc
 50
270.0
 51
0.0
  0
LINE
  5
2FE
330
4E3
100
AcDbEntity
  8
DATA
  6
Continuous
 62
     7
100
AcDbLine
 10
-326.5
 20
-264.5
 30
0.0
 11
-326.5
 21
-256.5
 31
0.0
  0
LINE
  5
2FF
330
4E3
100
AcDbEntity
  8
DATA
  6
Continuous
 62
     7
100
AcDbLine
 10
-310.0
 20
-257.9817150412615
 30
0.0
 11
-310.0
 21
-261.9817150412615
 31
0.0
  0
LINE
  5
300
330
4E3
100
AcDbEntity
  8
DATA
  6
Continuous
 62
     7
100
AcDbLine
 10
-312.0
 20
-257.9817150412615
 30
0.0
 11
-310.0
 21
-257.9817150412615
 31
0.0
  0
LINE
  5
301
330
4E3
100
AcDbEntity
  8
DATA
  6
Continuous
 62
     7
100
AcDbLine
 10
-312.0
 20
-261.9817150412615
 30
0.0
 11
-312.0
 21
-257.9817150412615
 31
0.0
  0
LINE
  5
302
330
4E3
100
AcDbEntity
  8
DATA
  6
Continuous
 62
     7
100
AcDbLine
 10
-310.0
 20
-261.9817150412615
 30
0.0
 11
-312.0
 21
-261.9817150412615
 31
0.0
  0
LINE
  5
303
330
4E3
100
AcDbEntity
  8
DATA
  6
Continuous
 62
     7
100
AcDbLine
 10
-303.0
 20
-253.5418142979067
 30
0.0
 11
-303.0
 21
-257.5418142979067
 31
0.0
  0
LINE
  5
304
330
4E3
100
AcDbEntity
  8
DATA
  6
Continuous
 62
     7
100
AcDbLine
 10
-305.0
 20
-253.5418142979067
 30
0.0
 11
-303.0
 21
-253.5418142979067
 31
0.0
  0
LINE
  5
305
330
4E3
100
AcDbEntity
  8
DATA
  6
Continuous
 62
     7
100
AcDbLine
 10
-305.0
 20
-257.5418142979067
 30
0.0
 11
-305.0
 21
-253.5418142979067
 31
0.0
  0
LINE
  5
306
330
4E3
100
AcDbEntity
  8
DATA
  6
Continuous
 62
     7
100
AcDbLine
 10
-303.0
 20
-257.5418142979067
 30
0.0
 11
-305.0
 21
-257.5418142979067
 31
0.0
  0
LINE
  5
307
330
4E3
100
AcDbEntity
  8
DATA
  6
Continuous
 62
     7
100
AcDbLine
 10
-319.0
 20
-253.5418142979067
 30
0.0
 11
-319.0
 21
-257.5418142979067
 31
0.0
  0
LINE
  5
308
330
4E3
100
AcDbEntity
  8
DATA
  6
Continuous
 62
     7
100
AcDbLine
 10
-317.0
 20
-253.5418142979067
 30
0.0
 11
-319.0
 21
-253.5418142979067
 31
0.0
  0
LINE
  5
309
330
4E3
100
AcDbEntity
  8
DATA
  6
Continuous
 62
     7
100
AcDbLine
 10
-317.0
 20
-257.5418142979067
 30
0.0
 11
-317.0
 21
-253.5418142979067
 31
0.0
  0
LINE
  5
30A
330
4E3
100
AcDbEntity
  8
DATA
  6
Continuous
 62
     7
100
AcDbLine
 10
-319.0
 20
-257.5418142979067
 30
0.0
 11
-317.0
 21
-257.5418142979067
 31
0.0
  0
CIRCLE
  5
30B
330
4E3
100
AcDbEntity
  8
DATA
  6
Continuous
 62
     7
100
AcDbCircle
 10
-291.0
 20
-256.5
 30
0.0
 40
4.0
  0
CIRCLE
  5
30C
330
4E3
100
AcDbEntity
  8
DATA
  6
Continuous
 62
     7
100
AcDbCircle
 10
-331.0
 20
-256.5
 30
0.0
 40
4.0
  0
LINE
  5
30D
330
4E3
100
AcDbEntity
  8
DATA
  6
Continuous
 62
     7
100
AcDbLine
 10
-292.3178372451957
 20
-254.7825610647857
 30
0.0
 11
-293.1462643699419
 21
-256.2174389352143
 31
0.0
  0
LINE
  5
30E
330
4E3
100
AcDbEntity
  8
DATA
  6
Continuous
 62
     7
100
AcDbLine
 10
-290.7174389352144
 20
-254.353735630058
 30
0.0
 11
-292.3178372451957
 21
-254.7825610647857
 31
0.0
  0
LINE
  5
30F
330
4E3
100
AcDbEntity
  8
DATA
  6
Continuous
 62
     7
100
AcDbLine
 10
-289.2825610647856
 20
-255.1821627548042
 30
0.0
 11
-290.7174389352144
 21
-254.353735630058
 31
0.0
  0
LINE
  5
310
330
4E3
100
AcDbEntity
  8
DATA
  6
Continuous
 62
     7
100
AcDbLine
 10
-288.8537356300581
 20
-256.7825610647857
 30
0.0
 11
-289.2825610647856
 21
-255.1821627548042
 31
0.0
  0
LINE
  5
311
330
4E3
100
AcDbEntity
  8
DATA
  6
Continuous
 62
     7
100
AcDbLine
 10
-289.6821627548042
 20
-258.2174389352143
 30
0.0
 11
-288.8537356300581
 21
-256.7825610647857
 31
0.0
  0
LINE
  5
312
330
4E3
100
AcDbEntity
  8
DATA
  6
Continuous
 62
     7
100
AcDbLine
 10
-291.2825610647857
 20
-258.646264369942
 30
0.0
 11
-289.6821627548042
 21
-258.2174389352143
 31
0.0
  0
LINE
  5
313
330
4E3
100
AcDbEntity
  8
DATA
  6
Continuous
 62
     7
100
AcDbLine
 10
-292.7174389352144
 20
-257.8178372451958
 30
0.0
 11
-291.2825610647857
 21
-258.646264369942
 31
0.0
  0
LINE
  5
314
330
4E3
100
AcDbEntity
  8
DATA
  6
Continuous
 62
     7
100
AcDbLine
 10
-293.1462643699419
 20
-256.2174389352143
 30
0.0
 11
-292.7174389352144
 21
-257.8178372451958
 31
0.0
  0
LINE
  5
315
330
4E3
100
AcDbEntity
  8
DATA
  6
Continuous
 62
     7
100
AcDbLine
 10
-329.6821627548043
 20
-254.7825610647857
 30
0.0
 11
-328.853735630058
 21
-256.2174389352143
 31
0.0
  0
LINE
  5
316
330
4E3
100
AcDbEntity
  8
DATA
  6
Continuous
 62
     7
100
AcDbLine
 10
-331.2825610647856
 20
-254.353735630058
 30
0.0
 11
-329.6821627548043
 21
-254.7825610647857
 31
0.0
  0
LINE
  5
317
330
4E3
100
AcDbEntity
  8
DATA
  6
Continuous
 62
     7
100
AcDbLine
 10
-332.7174389352145
 20
-255.1821627548042
 30
0.0
 11
-331.2825610647856
 21
-254.353735630058
 31
0.0
  0
LINE
  5
318
330
4E3
100
AcDbEntity
  8
DATA
  6
Continuous
 62
     7
100
AcDbLine
 10
-333.146264369942
 20
-256.7825610647857
 30
0.0
 11
-332.7174389352145
 21
-255.1821627548042
 31
0.0
  0
LINE
  5
319
330
4E3
100
AcDbEntity
  8
DATA
  6
Continuous
 62
     7
100
AcDbLine
 10
-332.3178372451957
 20
-258.2174389352143
 30
0.0
 11
-333.146264369942
 21
-256.7825610647857
 31
0.0
  0
LINE
  5
31A
330
4E3
100
AcDbEntity
  8
DATA
  6
Continuous
 62
     7
100
AcDbLine
 10
-330.7174389352145
 20
-258.646264369942
 30
0.0
 11
-332.3178372451957
 21
-258.2174389352143
 31
0.0
  0
LINE
  5
31B
330
4E3
100
AcDbEntity
  8
DATA
  6
Continuous
 62
     7
100
AcDbLine
 10
-329.2825610647856
 20
-257.8178372451958
 30
0.0
 11
-330.7174389352145
 21
-258.646264369942
 31
0.0
  0
LINE
  5
31C
330
4E3
100
AcDbEntity
  8
DATA
  6
Continuous
 62
     7
100
AcDbLine
 10
-328.853735630058
 20
-256.2174389352143
 30
0.0
 11
-329.2825610647856
 21
-257.8178372451958
 31
0.0
  0
TEXT
  5
31D
330
4E3
100
AcDbEntity
  8
DATA
 62
     7
100
AcDbText
 10
-300.0243758709753
 20
-269.0389855611097
 30
0.0
 40
1.628841485636124
  1
100-240～50/60Hz  6W
 50
180.0
 41
0.7
 11
-300.0243758709753
 21
-270.6678270467459
 31
0.0
100
AcDbText
 73
     3
  0
LINE
  5
31E
330
4E3
100
AcDbEntity
  8
DATA
  6
Continuous
 62
     7
100
AcDbLine
 10
-381.5999999999999
 20
-246.9862801395782
 30
0.0
 11
-381.5999999999999
 21
-234.9862801395783
 31
0.0
  0
LINE
  5
31F
330
4E3
100
AcDbEntity
  8
DATA
  6
Continuous
 62
     7
100
AcDbLine
 10
-391.3000000000001
 20
-242.9862801395783
 30
0.0
 11
-391.3000000000001
 21
-238.9862801395783
 31
0.0
  0
LINE
  5
320
330
4E3
100
AcDbEntity
  8
DATA
  6
Continuous
 62
     7
100
AcDbLine
 10
-391.3000000000001
 20
-238.9862801395783
 30
0.0
 11
-391.3000000000001
 21
-242.9862801395783
 31
0.0
  0
LINE
  5
321
330
4E3
100
AcDbEntity
  8
DATA
  6
Continuous
 62
     7
100
AcDbLine
 10
-381.5999999999999
 20
-246.9862801395783
 30
0.0
 11
-389.227485294968
 21
-246.9862801395783
 31
0.0
  0
LINE
  5
322
330
4E3
100
AcDbEntity
  8
DATA
  6
Continuous
 62
     7
100
AcDbLine
 10
-381.5999999999999
 20
-234.9862801395783
 30
0.0
 11
-389.227485294968
 21
-234.9862801395783
 31
0.0
  0
LINE
  5
323
330
4E3
100
AcDbEntity
  8
DATA
  6
Continuous
 62
     7
100
AcDbLine
 10
-391.3000000000001
 20
-242.9862801395783
 30
0.0
 11
-389.227485294968
 21
-242.9862801395783
 31
0.0
  0
LINE
  5
324
330
4E3
100
AcDbEntity
  8
DATA
  6
Continuous
 62
     7
100
AcDbLine
 10
-391.3000000000001
 20
-238.9862801395783
 30
0.0
 11
-389.227485294968
 21
-238.9862801395783
 31
0.0
  0
LINE
  5
325
330
4E3
100
AcDbEntity
  8
DATA
  6
Continuous
 62
     7
100
AcDbLine
 10
-389.227485294968
 20
-242.9862801395783
 30
0.0
 11
-389.227485294968
 21
-246.9862801395783
 31
0.0
  0
LINE
  5
326
330
4E3
100
AcDbEntity
  8
DATA
  6
Continuous
 62
     7
100
AcDbLine
 10
-389.227485294968
 20
-238.9862801395783
 30
0.0
 11
-389.227485294968
 21
-234.9862801395783
 31
0.0
  0
LINE
  5
327
330
4E3
100
AcDbEntity
  8
DATA
  6
Continuous
 62
     7
100
AcDbLine
 10
-282.0
 20
-230.5
 30
0.0
 11
-282.0
 21
-273.5
 31
0.0
  0
LINE
  5
328
330
4E3
100
AcDbEntity
  8
DATA
  6
Continuous
 62
     7
100
AcDbLine
 10
450.0
 20
125.0
 30
0.0
 11
450.0
 21
175.0
 31
0.0
  0
LINE
  5
329
330
4E3
100
AcDbEntity
  8
DATA
  6
Continuous
 62
     7
100
AcDbLine
 10
450.0
 20
175.0
 30
0.0
 11
575.0
 21
175.0
 31
0.0
  0
LINE
  5
32A
330
4E3
100
AcDbEntity
  8
DATA
  6
Continuous
 62
     7
100
AcDbLine
 10
575.0
 20
125.0
 30
0.0
 11
575.0
 21
175.0
 31
0.0
  0
LINE
  5
32B
330
4E3
100
AcDbEntity
  8
DATA
  6
Continuous
 62
     7
100
AcDbLine
 10
450.0
 20
125.0
 30
0.0
 11
575.0
 21
125.0
 31
0.0
  0
CIRCLE
  5
32C
330
4E3
100
AcDbEntity
  8
DATA
  6
Continuous
 62
     7
100
AcDbCircle
 10
567.0
 20
161.0
 30
0.0
 40
2.25
  0
CIRCLE
  5
32D
330
4E3
100
AcDbEntity
  8
DATA
  6
Continuous
 62
     7
100
AcDbCircle
 10
567.0
 20
139.0
 30
0.0
 40
2.25
  0
CIRCLE
  5
32E
330
4E3
100
AcDbEntity
  8
DATA
  6
Continuous
 62
     7
100
AcDbCircle
 10
458.0
 20
161.0
 30
0.0
 40
2.25
  0
CIRCLE
  5
32F
330
4E3
100
AcDbEntity
  8
DATA
  6
Continuous
 62
     7
100
AcDbCircle
 10
458.0
 20
139.0
 30
0.0
 40
2.25
  0
LINE
  5
330
330
4E3
100
AcDbEntity
  8
DATA
  6
Continuous
 62
     7
100
AcDbLine
 10
-250.0
 20
-750.0
 30
0.0
 11
-250.0
 21
-705.4999999999999
 31
0.0
  0
LINE
  5
331
330
4E3
100
AcDbEntity
  8
DATA
  6
Continuous
 62
     7
100
AcDbLine
 10
54.0
 20
-750.0
 30
0.0
 11
-250.0
 21
-750.0
 31
0.0
  0
LINE
  5
332
330
4E3
100
AcDbEntity
  8
DATA
  6
Continuous
 62
     7
100
AcDbLine
 10
54.0
 20
-705.4999999999999
 30
0.0
 11
54.0
 21
-750.0
 31
0.0
  0
ARC
  5
333
330
4E3
100
AcDbEntity
  8
DATA
  6
Continuous
 62
     7
100
AcDbCircle
 10
-159.8499999999999
 20
-717.4999999999999
 30
0.0
 40
1.349999999999909
100
AcDbArc
 50
269.9999999999904
 51
90.00000000000964
  0
ARC
  5
334
330
4E3
100
AcDbEntity
  8
DATA
  6
Continuous
 62
     7
100
AcDbCircle
 10
-175.65
 20
-717.4999999999999
 30
0.0
 40
1.349999999999909
100
AcDbArc
 50
89.99999999999037
 51
270.0000000000096
  0
LINE
  5
335
330
4E3
100
AcDbEntity
  8
DATA
  6
Continuous
 62
     7
100
AcDbLine
 10
-175.6499999999999
 20
-716.1500000000001
 30
0.0
 11
-159.8500000000001
 21
-716.1500000000001
 31
0.0
  0
LINE
  5
336
330
4E3
100
AcDbEntity
  8
DATA
  6
Continuous
 62
     7
100
AcDbLine
 10
-159.8500000000001
 20
-718.8499999999997
 30
0.0
 11
-175.6499999999999
 21
-718.8499999999997
 31
0.0
  0
ARC
  5
337
330
4E3
100
AcDbEntity
  8
DATA
  6
Continuous
 62
     7
100
AcDbCircle
 10
-159.8499999999999
 20
-723.5
 30
0.0
 40
1.349999999999909
100
AcDbArc
 50
269.9999999999904
 51
90.00000000000964
  0
ARC
  5
338
330
4E3
100
AcDbEntity
  8
DATA
  6
Continuous
 62
     7
100
AcDbCircle
 10
-175.65
 20
-723.5
 30
0.0
 40
1.349999999999909
100
AcDbArc
 50
89.99999999999037
 51
270.0000000000096
  0
LINE
  5
339
330
4E3
100
AcDbEntity
  8
DATA
  6
Continuous
 62
     7
100
AcDbLine
 10
-175.6499999999999
 20
-722.1500000000002
 30
0.0
 11
-159.8500000000001
 21
-722.1500000000002
 31
0.0
  0
LINE
  5
33A
330
4E3
100
AcDbEntity
  8
DATA
  6
Continuous
 62
     7
100
AcDbLine
 10
-159.8500000000001
 20
-724.8499999999998
 30
0.0
 11
-175.6499999999999
 21
-724.8499999999998
 31
0.0
  0
ARC
  5
33B
330
4E3
100
AcDbEntity
  8
DATA
  6
Continuous
 62
     7
100
AcDbCircle
 10
-159.8499999999999
 20
-729.4999999999999
 30
0.0
 40
1.349999999999909
100
AcDbArc
 50
269.9999999999904
 51
90.00000000000964
  0
ARC
  5
33C
330
4E3
100
AcDbEntity
  8
DATA
  6
Continuous
 62
     7
100
AcDbCircle
 10
-175.65
 20
-729.4999999999999
 30
0.0
 40
1.349999999999909
100
AcDbArc
 50
89.99999999999037
 51
270.0000000000096
  0
LINE
  5
33D
330
4E3
100
AcDbEntity
  8
DATA
  6
Continuous
 62
     7
100
AcDbLine
 10
-175.6499999999999
 20
-728.1500000000002
 30
0.0
 11
-159.8500000000001
 21
-728.1500000000002
 31
0.0
  0
LINE
  5
33E
330
4E3
100
AcDbEntity
  8
DATA
  6
Continuous
 62
     7
100
AcDbLine
 10
-159.8500000000001
 20
-730.8499999999997
 30
0.0
 11
-175.6499999999999
 21
-730.8499999999997
 31
0.0
  0
ARC
  5
33F
330
4E3
100
AcDbEntity
  8
DATA
  6
Continuous
 62
     7
100
AcDbCircle
 10
-133.8499999999999
 20
-717.4999999999999
 30
0.0
 40
1.349999999999909
100
AcDbArc
 50
269.9999999999904
 51
90.00000000000964
  0
ARC
  5
340
330
4E3
100
AcDbEntity
  8
DATA
  6
Continuous
 62
     7
100
AcDbCircle
 10
-149.6500000000001
 20
-717.4999999999999
 30
0.0
 40
1.349999999999909
100
AcDbArc
 50
89.99999999999037
 51
270.0000000000096
  0
LINE
  5
341
330
4E3
100
AcDbEntity
  8
DATA
  6
Continuous
 62
     7
100
AcDbLine
 10
-149.6499999999998
 20
-716.1500000000001
 30
0.0
 11
-133.8500000000001
 21
-716.1500000000001
 31
0.0
  0
LINE
  5
342
330
4E3
100
AcDbEntity
  8
DATA
  6
Continuous
 62
     7
100
AcDbLine
 10
-133.8500000000001
 20
-718.8499999999997
 30
0.0
 11
-149.6499999999998
 21
-718.8499999999997
 31
0.0
  0
ARC
  5
343
330
4E3
100
AcDbEntity
  8
DATA
  6
Continuous
 62
     7
100
AcDbCircle
 10
-133.8499999999999
 20
-723.5
 30
0.0
 40
1.349999999999909
100
AcDbArc
 50
269.9999999999904
 51
90.00000000000964
  0
ARC
  5
344
330
4E3
100
AcDbEntity
  8
DATA
  6
Continuous
 62
     7
100
AcDbCircle
 10
-149.6500000000001
 20
-723.5
 30
0.0
 40
1.349999999999909
100
AcDbArc
 50
89.99999999999037
 51
270.0000000000096
  0
LINE
  5
345
330
4E3
100
AcDbEntity
  8
DATA
  6
Continuous
 62
     7
100
AcDbLine
 10
-149.6499999999998
 20
-722.1500000000002
 30
0.0
 11
-133.8500000000001
 21
-722.1500000000002
 31
0.0
  0
LINE
  5
346
330
4E3
100
AcDbEntity
  8
DATA
  6
Continuous
 62
     7
100
AcDbLine
 10
-133.8500000000001
 20
-724.8499999999998
 30
0.0
 11
-149.6499999999998
 21
-724.8499999999998
 31
0.0
  0
ARC
  5
347
330
4E3
100
AcDbEntity
  8
DATA
  6
Continuous
 62
     7
100
AcDbCircle
 10
-133.8499999999999
 20
-729.4999999999999
 30
0.0
 40
1.349999999999909
100
AcDbArc
 50
269.9999999999904
 51
90.00000000000964
  0
ARC
  5
348
330
4E3
100
AcDbEntity
  8
DATA
  6
Continuous
 62
     7
100
AcDbCircle
 10
-149.6500000000001
 20
-729.4999999999999
 30
0.0
 40
1.349999999999909
100
AcDbArc
 50
89.99999999999037
 51
270.0000000000096
  0
LINE
  5
349
330
4E3
100
AcDbEntity
  8
DATA
  6
Continuous
 62
     7
100
AcDbLine
 10
-149.6499999999998
 20
-728.1500000000002
 30
0.0
 11
-133.8500000000001
 21
-728.1500000000002
 31
0.0
  0
LINE
  5
34A
330
4E3
100
AcDbEntity
  8
DATA
  6
Continuous
 62
     7
100
AcDbLine
 10
-133.8500000000001
 20
-730.8499999999997
 30
0.0
 11
-149.6499999999998
 21
-730.8499999999997
 31
0.0
  0
ARC
  5
34B
330
4E3
100
AcDbEntity
  8
DATA
  6
Continuous
 62
     7
100
AcDbCircle
 10
-107.8499999999999
 20
-717.4999999999999
 30
0.0
 40
1.349999999999909
100
AcDbArc
 50
269.9999999999904
 51
90.00000000000964
  0
ARC
  5
34C
330
4E3
100
AcDbEntity
  8
DATA
  6
Continuous
 62
     7
100
AcDbCircle
 10
-123.6500000000001
 20
-717.4999999999999
 30
0.0
 40
1.349999999999909
100
AcDbArc
 50
89.99999999999037
 51
270.0000000000096
  0
LINE
  5
34D
330
4E3
100
AcDbEntity
  8
DATA
  6
Continuous
 62
     7
100
AcDbLine
 10
-123.6499999999998
 20
-716.1500000000001
 30
0.0
 11
-107.8500000000001
 21
-716.1500000000001
 31
0.0
  0
LINE
  5
34E
330
4E3
100
AcDbEntity
  8
DATA
  6
Continuous
 62
     7
100
AcDbLine
 10
-107.8500000000001
 20
-718.8499999999997
 30
0.0
 11
-123.6499999999998
 21
-718.8499999999997
 31
0.0
  0
ARC
  5
34F
330
4E3
100
AcDbEntity
  8
DATA
  6
Continuous
 62
     7
100
AcDbCircle
 10
-107.8499999999999
 20
-723.5
 30
0.0
 40
1.349999999999909
100
AcDbArc
 50
269.9999999999904
 51
90.00000000000964
  0
ARC
  5
350
330
4E3
100
AcDbEntity
  8
DATA
  6
Continuous
 62
     7
100
AcDbCircle
 10
-123.6500000000001
 20
-723.5
 30
0.0
 40
1.349999999999909
100
AcDbArc
 50
89.99999999999037
 51
270.0000000000096
  0
LINE
  5
351
330
4E3
100
AcDbEntity
  8
DATA
  6
Continuous
 62
     7
100
AcDbLine
 10
-123.6499999999998
 20
-722.1500000000002
 30
0.0
 11
-107.8500000000001
 21
-722.1500000000002
 31
0.0
  0
LINE
  5
352
330
4E3
100
AcDbEntity
  8
DATA
  6
Continuous
 62
     7
100
AcDbLine
 10
-107.8500000000001
 20
-724.8499999999998
 30
0.0
 11
-123.6499999999998
 21
-724.8499999999998
 31
0.0
  0
ARC
  5
353
330
4E3
100
AcDbEntity
  8
DATA
  6
Continuous
 62
     7
100
AcDbCircle
 10
-107.8499999999999
 20
-729.4999999999999
 30
0.0
 40
1.349999999999909
100
AcDbArc
 50
269.9999999999904
 51
90.00000000000964
  0
ARC
  5
354
330
4E3
100
AcDbEntity
  8
DATA
  6
Continuous
 62
     7
100
AcDbCircle
 10
-123.6500000000001
 20
-729.4999999999999
 30
0.0
 40
1.349999999999909
100
AcDbArc
 50
89.99999999999037
 51
270.0000000000096
  0
LINE
  5
355
330
4E3
100
AcDbEntity
  8
DATA
  6
Continuous
 62
     7
100
AcDbLine
 10
-123.6499999999998
 20
-728.1500000000002
 30
0.0
 11
-107.8500000000001
 21
-728.1500000000002
 31
0.0
  0
LINE
  5
356
330
4E3
100
AcDbEntity
  8
DATA
  6
Continuous
 62
     7
100
AcDbLine
 10
-107.8500000000001
 20
-730.8499999999997
 30
0.0
 11
-123.6499999999998
 21
-730.8499999999997
 31
0.0
  0
ARC
  5
357
330
4E3
100
AcDbEntity
  8
DATA
  6
Continuous
 62
     7
100
AcDbCircle
 10
-81.84999999999993
 20
-717.4999999999999
 30
0.0
 40
1.349999999999909
100
AcDbArc
 50
269.9999999999904
 51
90.00000000000964
  0
ARC
  5
358
330
4E3
100
AcDbEntity
  8
DATA
  6
Continuous
 62
     7
100
AcDbCircle
 10
-97.65000000000007
 20
-717.4999999999999
 30
0.0
 40
1.349999999999909
100
AcDbArc
 50
89.99999999999037
 51
270.0000000000096
  0
LINE
  5
359
330
4E3
100
AcDbEntity
  8
DATA
  6
Continuous
 62
     7
100
AcDbLine
 10
-97.64999999999986
 20
-716.1500000000001
 30
0.0
 11
-81.85000000000012
 21
-716.1500000000001
 31
0.0
  0
LINE
  5
35A
330
4E3
100
AcDbEntity
  8
DATA
  6
Continuous
 62
     7
100
AcDbLine
 10
-81.85000000000012
 20
-718.8499999999997
 30
0.0
 11
-97.64999999999986
 21
-718.8499999999997
 31
0.0
  0
ARC
  5
35B
330
4E3
100
AcDbEntity
  8
DATA
  6
Continuous
 62
     7
100
AcDbCircle
 10
-81.84999999999993
 20
-723.5
 30
0.0
 40
1.349999999999909
100
AcDbArc
 50
269.9999999999904
 51
90.00000000000964
  0
ARC
  5
35C
330
4E3
100
AcDbEntity
  8
DATA
  6
Continuous
 62
     7
100
AcDbCircle
 10
-97.65000000000007
 20
-723.5
 30
0.0
 40
1.349999999999909
100
AcDbArc
 50
89.99999999999037
 51
270.0000000000096
  0
LINE
  5
35D
330
4E3
100
AcDbEntity
  8
DATA
  6
Continuous
 62
     7
100
AcDbLine
 10
-97.64999999999986
 20
-722.1500000000002
 30
0.0
 11
-81.85000000000012
 21
-722.1500000000002
 31
0.0
  0
LINE
  5
35E
330
4E3
100
AcDbEntity
  8
DATA
  6
Continuous
 62
     7
100
AcDbLine
 10
-81.85000000000012
 20
-724.8499999999998
 30
0.0
 11
-97.64999999999986
 21
-724.8499999999998
 31
0.0
  0
ARC
  5
35F
330
4E3
100
AcDbEntity
  8
DATA
  6
Continuous
 62
     7
100
AcDbCircle
 10
-81.84999999999993
 20
-729.4999999999999
 30
0.0
 40
1.349999999999909
100
AcDbArc
 50
269.9999999999904
 51
90.00000000000964
  0
ARC
  5
360
330
4E3
100
AcDbEntity
  8
DATA
  6
Continuous
 62
     7
100
AcDbCircle
 10
-97.65000000000007
 20
-729.4999999999999
 30
0.0
 40
1.349999999999909
100
AcDbArc
 50
89.99999999999037
 51
270.0000000000096
  0
LINE
  5
361
330
4E3
100
AcDbEntity
  8
DATA
  6
Continuous
 62
     7
100
AcDbLine
 10
-97.64999999999986
 20
-728.1500000000002
 30
0.0
 11
-81.85000000000012
 21
-728.1500000000002
 31
0.0
  0
LINE
  5
362
330
4E3
100
AcDbEntity
  8
DATA
  6
Continuous
 62
     7
100
AcDbLine
 10
-81.85000000000012
 20
-730.8499999999997
 30
0.0
 11
-97.64999999999986
 21
-730.8499999999997
 31
0.0
  0
ARC
  5
363
330
4E3
100
AcDbEntity
  8
DATA
  6
Continuous
 62
     7
100
AcDbCircle
 10
-55.8499999999999
 20
-717.4999999999999
 30
0.0
 40
1.349999999999909
100
AcDbArc
 50
269.9999999999904
 51
90.00000000000964
  0
ARC
  5
364
330
4E3
100
AcDbEntity
  8
DATA
  6
Continuous
 62
     7
100
AcDbCircle
 10
-71.65000000000009
 20
-717.4999999999999
 30
0.0
 40
1.349999999999909
100
AcDbArc
 50
89.99999999999037
 51
270.0000000000096
  0
LINE
  5
365
330
4E3
100
AcDbEntity
  8
DATA
  6
Continuous
 62
     7
100
AcDbLine
 10
-71.64999999999986
 20
-716.1500000000001
 30
0.0
 11
-55.85000000000015
 21
-716.1500000000001
 31
0.0
  0
LINE
  5
366
330
4E3
100
AcDbEntity
  8
DATA
  6
Continuous
 62
     7
100
AcDbLine
 10
-55.85000000000015
 20
-718.8499999999997
 30
0.0
 11
-71.64999999999986
 21
-718.8499999999997
 31
0.0
  0
ARC
  5
367
330
4E3
100
AcDbEntity
  8
DATA
  6
Continuous
 62
     7
100
AcDbCircle
 10
-55.8499999999999
 20
-723.5
 30
0.0
 40
1.349999999999909
100
AcDbArc
 50
269.9999999999904
 51
90.00000000000964
  0
ARC
  5
368
330
4E3
100
AcDbEntity
  8
DATA
  6
Continuous
 62
     7
100
AcDbCircle
 10
-71.65000000000009
 20
-723.5
 30
0.0
 40
1.349999999999909
100
AcDbArc
 50
89.99999999999037
 51
270.0000000000096
  0
LINE
  5
369
330
4E3
100
AcDbEntity
  8
DATA
  6
Continuous
 62
     7
100
AcDbLine
 10
-71.64999999999986
 20
-722.1500000000002
 30
0.0
 11
-55.85000000000015
 21
-722.1500000000002
 31
0.0
  0
LINE
  5
36A
330
4E3
100
AcDbEntity
  8
DATA
  6
Continuous
 62
     7
100
AcDbLine
 10
-55.85000000000015
 20
-724.8499999999998
 30
0.0
 11
-71.64999999999986
 21
-724.8499999999998
 31
0.0
  0
ARC
  5
36B
330
4E3
100
AcDbEntity
  8
DATA
  6
Continuous
 62
     7
100
AcDbCircle
 10
-55.8499999999999
 20
-729.4999999999999
 30
0.0
 40
1.349999999999909
100
AcDbArc
 50
269.9999999999904
 51
90.00000000000964
  0
ARC
  5
36C
330
4E3
100
AcDbEntity
  8
DATA
  6
Continuous
 62
     7
100
AcDbCircle
 10
-71.65000000000009
 20
-729.4999999999999
 30
0.0
 40
1.349999999999909
100
AcDbArc
 50
89.99999999999037
 51
270.0000000000096
  0
LINE
  5
36D
330
4E3
100
AcDbEntity
  8
DATA
  6
Continuous
 62
     7
100
AcDbLine
 10
-71.64999999999986
 20
-728.1500000000002
 30
0.0
 11
-55.85000000000015
 21
-728.1500000000002
 31
0.0
  0
LINE
  5
36E
330
4E3
100
AcDbEntity
  8
DATA
  6
Continuous
 62
     7
100
AcDbLine
 10
-55.85000000000015
 20
-730.8499999999997
 30
0.0
 11
-71.64999999999986
 21
-730.8499999999997
 31
0.0
  0
ARC
  5
36F
330
4E3
100
AcDbEntity
  8
DATA
  6
Continuous
 62
     7
100
AcDbCircle
 10
-29.84999999999991
 20
-717.4999999999999
 30
0.0
 40
1.349999999999909
100
AcDbArc
 50
269.9999999999904
 51
90.00000000000964
  0
ARC
  5
370
330
4E3
100
AcDbEntity
  8
DATA
  6
Continuous
 62
     7
100
AcDbCircle
 10
-45.6500000000001
 20
-717.4999999999999
 30
0.0
 40
1.349999999999909
100
AcDbArc
 50
89.99999999999037
 51
270.0000000000096
  0
LINE
  5
371
330
4E3
100
AcDbEntity
  8
DATA
  6
Continuous
 62
     7
100
AcDbLine
 10
-45.64999999999986
 20
-716.1500000000001
 30
0.0
 11
-29.85000000000014
 21
-716.1500000000001
 31
0.0
  0
LINE
  5
372
330
4E3
100
AcDbEntity
  8
DATA
  6
Continuous
 62
     7
100
AcDbLine
 10
-29.85000000000014
 20
-718.8499999999997
 30
0.0
 11
-45.64999999999986
 21
-718.8499999999997
 31
0.0
  0
ARC
  5
373
330
4E3
100
AcDbEntity
  8
DATA
  6
Continuous
 62
     7
100
AcDbCircle
 10
-3.849999999999908
 20
-717.4999999999999
 30
0.0
 40
1.349999999999909
100
AcDbArc
 50
269.9999999999904
 51
90.00000000000964
  0
ARC
  5
374
330
4E3
100
AcDbEntity
  8
DATA
  6
Continuous
 62
     7
100
AcDbCircle
 10
-19.65000000000008
 20
-717.4999999999999
 30
0.0
 40
1.349999999999909
100
AcDbArc
 50
89.99999999999037
 51
270.0000000000096
  0
LINE
  5
375
330
4E3
100
AcDbEntity
  8
DATA
  6
Continuous
 62
     7
100
AcDbLine
 10
-19.64999999999986
 20
-716.1500000000001
 30
0.0
 11
-3.850000000000136
 21
-716.1500000000001
 31
0.0
  0
LINE
  5
376
330
4E3
100
AcDbEntity
  8
DATA
  6
Continuous
 62
     7
100
AcDbLine
 10
-3.850000000000136
 20
-718.8499999999997
 30
0.0
 11
-19.64999999999986
 21
-718.8499999999997
 31
0.0
  0
ARC
  5
377
330
4E3
100
AcDbEntity
  8
DATA
  6
Continuous
 62
     7
100
AcDbCircle
 10
-3.849999999999908
 20
-723.5
 30
0.0
 40
1.349999999999909
100
AcDbArc
 50
269.9999999999904
 51
90.00000000000964
  0
ARC
  5
378
330
4E3
100
AcDbEntity
  8
DATA
  6
Continuous
 62
     7
100
AcDbCircle
 10
-19.65000000000008
 20
-723.5
 30
0.0
 40
1.349999999999909
100
AcDbArc
 50
89.99999999999037
 51
270.0000000000096
  0
LINE
  5
379
330
4E3
100
AcDbEntity
  8
DATA
  6
Continuous
 62
     7
100
AcDbLine
 10
-19.64999999999986
 20
-722.1500000000002
 30
0.0
 11
-3.850000000000136
 21
-722.1500000000002
 31
0.0
  0
LINE
  5
37A
330
4E3
100
AcDbEntity
  8
DATA
  6
Continuous
 62
     7
100
AcDbLine
 10
-3.850000000000136
 20
-724.8499999999998
 30
0.0
 11
-19.64999999999986
 21
-724.8499999999998
 31
0.0
  0
ARC
  5
37B
330
4E3
100
AcDbEntity
  8
DATA
  6
Continuous
 62
     7
100
AcDbCircle
 10
-3.849999999999908
 20
-729.4999999999999
 30
0.0
 40
1.349999999999909
100
AcDbArc
 50
269.9999999999904
 51
90.00000000000964
  0
ARC
  5
37C
330
4E3
100
AcDbEntity
  8
DATA
  6
Continuous
 62
     7
100
AcDbCircle
 10
-19.65000000000008
 20
-729.4999999999999
 30
0.0
 40
1.349999999999909
100
AcDbArc
 50
89.99999999999037
 51
270.0000000000096
  0
LINE
  5
37D
330
4E3
100
AcDbEntity
  8
DATA
  6
Continuous
 62
     7
100
AcDbLine
 10
-19.64999999999986
 20
-728.1500000000002
 30
0.0
 11
-3.850000000000136
 21
-728.1500000000002
 31
0.0
  0
LINE
  5
37E
330
4E3
100
AcDbEntity
  8
DATA
  6
Continuous
 62
     7
100
AcDbLine
 10
-3.850000000000136
 20
-730.8499999999997
 30
0.0
 11
-19.64999999999986
 21
-730.8499999999997
 31
0.0
  0
ARC
  5
37F
330
4E3
100
AcDbEntity
  8
DATA
  6
Continuous
 62
     7
100
AcDbCircle
 10
22.15000000000009
 20
-717.4999999999999
 30
0.0
 40
1.349999999999909
100
AcDbArc
 50
269.9999999999904
 51
90.00000000000964
  0
ARC
  5
380
330
4E3
100
AcDbEntity
  8
DATA
  6
Continuous
 62
     7
100
AcDbCircle
 10
6.349999999999909
 20
-717.4999999999999
 30
0.0
 40
1.349999999999909
100
AcDbArc
 50
89.99999999999037
 51
270.0000000000096
  0
LINE
  5
381
330
4E3
100
AcDbEntity
  8
DATA
  6
Continuous
 62
     7
100
AcDbLine
 10
6.350000000000136
 20
-716.1500000000001
 30
0.0
 11
22.14999999999986
 21
-716.1500000000001
 31
0.0
  0
LINE
  5
382
330
4E3
100
AcDbEntity
  8
DATA
  6
Continuous
 62
     7
100
AcDbLine
 10
22.14999999999986
 20
-718.8499999999997
 30
0.0
 11
6.350000000000136
 21
-718.8499999999997
 31
0.0
  0
ARC
  5
383
330
4E3
100
AcDbEntity
  8
DATA
  6
Continuous
 62
     7
100
AcDbCircle
 10
22.15000000000009
 20
-723.5
 30
0.0
 40
1.349999999999909
100
AcDbArc
 50
269.9999999999904
 51
90.00000000000964
  0
ARC
  5
384
330
4E3
100
AcDbEntity
  8
DATA
  6
Continuous
 62
     7
100
AcDbCircle
 10
6.349999999999909
 20
-723.5
 30
0.0
 40
1.349999999999909
100
AcDbArc
 50
89.99999999999037
 51
270.0000000000096
  0
LINE
  5
385
330
4E3
100
AcDbEntity
  8
DATA
  6
Continuous
 62
     7
100
AcDbLine
 10
6.350000000000136
 20
-722.1500000000002
 30
0.0
 11
22.14999999999986
 21
-722.1500000000002
 31
0.0
  0
LINE
  5
386
330
4E3
100
AcDbEntity
  8
DATA
  6
Continuous
 62
     7
100
AcDbLine
 10
22.14999999999986
 20
-724.8499999999998
 30
0.0
 11
6.350000000000136
 21
-724.8499999999998
 31
0.0
  0
ARC
  5
387
330
4E3
100
AcDbEntity
  8
DATA
  6
Continuous
 62
     7
100
AcDbCircle
 10
22.15000000000009
 20
-729.4999999999999
 30
0.0
 40
1.349999999999909
100
AcDbArc
 50
269.9999999999904
 51
90.00000000000964
  0
ARC
  5
388
330
4E3
100
AcDbEntity
  8
DATA
  6
Continuous
 62
     7
100
AcDbCircle
 10
6.349999999999909
 20
-729.4999999999999
 30
0.0
 40
1.349999999999909
100
AcDbArc
 50
89.99999999999037
 51
270.0000000000096
  0
LINE
  5
389
330
4E3
100
AcDbEntity
  8
DATA
  6
Continuous
 62
     7
100
AcDbLine
 10
6.350000000000136
 20
-728.1500000000002
 30
0.0
 11
22.14999999999986
 21
-728.1500000000002
 31
0.0
  0
LINE
  5
38A
330
4E3
100
AcDbEntity
  8
DATA
  6
Continuous
 62
     7
100
AcDbLine
 10
22.14999999999986
 20
-730.8499999999997
 30
0.0
 11
6.350000000000136
 21
-730.8499999999997
 31
0.0
  0
CIRCLE
  5
38B
330
4E3
100
AcDbEntity
  8
DATA
  6
Continuous
 62
     7
100
AcDbCircle
 10
34.0
 20
-719.2499999999999
 30
0.0
 40
1.5
  0
CIRCLE
  5
38C
330
4E3
100
AcDbEntity
  8
DATA
  6
Continuous
 62
     7
100
AcDbCircle
 10
34.0
 20
-737.25
 30
0.0
 40
1.5
  0
CIRCLE
  5
38D
330
4E3
100
AcDbEntity
  8
DATA
  6
Continuous
 62
     7
100
AcDbCircle
 10
-136.5
 20
-735.5
 30
0.0
 40
2.75
  0
CIRCLE
  5
38E
330
4E3
100
AcDbEntity
  8
DATA
  6
Continuous
 62
     7
100
AcDbCircle
 10
22.5
 20
-735.5
 30
0.0
 40
2.75
  0
CIRCLE
  5
38F
330
4E3
100
AcDbEntity
  8
DATA
  6
Continuous
 62
     7
100
AcDbCircle
 10
43.0
 20
-730.0
 30
0.0
 40
2.75
  0
CIRCLE
  5
390
330
4E3
100
AcDbEntity
  8
DATA
  6
Continuous
 62
     7
100
AcDbCircle
 10
-47.0
 20
-724.0
 30
0.0
 40
2.049999999999954
  0
CIRCLE
  5
391
330
4E3
100
AcDbEntity
  8
DATA
  6
Continuous
 62
     7
100
AcDbCircle
 10
-47.0
 20
-724.0
 30
0.0
 40
2.299999999999954
  0
CIRCLE
  5
392
330
4E3
100
AcDbEntity
  8
DATA
  6
Continuous
 62
     7
100
AcDbCircle
 10
-194.0
 20
-724.0
 30
0.0
 40
2.049999999999954
  0
CIRCLE
  5
393
330
4E3
100
AcDbEntity
  8
DATA
  6
Continuous
 62
     7
100
AcDbCircle
 10
-194.0
 20
-724.0
 30
0.0
 40
2.299999999999954
  0
LINE
  5
394
330
4E3
100
AcDbEntity
  8
DATA
  6
Continuous
 62
     7
100
AcDbLine
 10
60.5
 20
-717.9500000000001
 30
0.0
 11
60.5
 21
-726.0499999999998
 31
0.0
  0
LINE
  5
395
330
4E3
100
AcDbEntity
  8
DATA
  6
Continuous
 62
     7
100
AcDbLine
 10
60.5
 20
-732.95
 30
0.0
 11
60.5
 21
-741.0499999999998
 31
0.0
  0
LINE
  5
396
330
4E3
100
AcDbEntity
  8
DATA
  6
Continuous
 62
     7
100
AcDbLine
 10
60.5
 20
-726.0499999999998
 30
0.0
 11
56.56042761152935
 21
-726.0499999999998
 31
0.0
  0
LINE
  5
397
330
4E3
100
AcDbEntity
  8
DATA
  6
Continuous
 62
     7
100
AcDbLine
 10
55.5
 20
-717.9500000000001
 30
0.0
 11
60.5
 21
-717.9500000000001
 31
0.0
  0
LINE
  5
398
330
4E3
100
AcDbEntity
  8
DATA
  6
Continuous
 62
     7
100
AcDbLine
 10
60.5
 20
-741.0499999999998
 30
0.0
 11
54.0
 21
-741.0499999999998
 31
0.0
  0
LINE
  5
399
330
4E3
100
AcDbEntity
  8
DATA
  6
Continuous
 62
     7
100
AcDbLine
 10
55.5
 20
-732.95
 30
0.0
 11
60.5
 21
-732.95
 31
0.0
  0
LINE
  5
39A
330
4E3
100
AcDbEntity
  8
DATA
  6
Continuous
 62
     7
100
AcDbLine
 10
60.5
 20
-741.0499999999998
 30
0.0
 11
60.5
 21
-741.5499999999998
 31
0.0
  0
LINE
  5
39B
330
4E3
100
AcDbEntity
  8
DATA
  6
Continuous
 62
     7
100
AcDbLine
 10
60.5
 20
-741.5499999999998
 30
0.0
 11
54.0
 21
-741.5499999999998
 31
0.0
  0
LINE
  5
39C
330
4E3
100
AcDbEntity
  8
DATA
  6
Continuous
 62
     7
100
AcDbLine
 10
55.5
 20
-713.0
 30
0.0
 11
55.5
 21
-720.4292857857284
 31
0.0
  0
LINE
  5
39D
330
4E3
100
AcDbEntity
  8
DATA
  6
Continuous
 62
     7
100
AcDbLine
 10
55.5
 20
-727.5707142142714
 30
0.0
 11
55.5
 21
-734.9999999925493
 31
0.0
  0
LINE
  5
39E
330
4E3
100
AcDbEntity
  8
DATA
  6
Continuous
 62
     7
100
AcDbLine
 10
54.0
 20
-712.5
 30
0.0
 11
55.0
 21
-712.5
 31
0.0
  0
LINE
  5
39F
330
4E3
100
AcDbEntity
  8
DATA
  6
Continuous
 62
     7
100
AcDbLine
 10
54.0
 20
-735.5
 30
0.0
 11
54.99999999254942
 21
-735.5
 31
0.0
  0
ARC
  5
3A0
330
4E3
100
AcDbEntity
  8
DATA
  6
Continuous
 62
     7
100
AcDbCircle
 10
55.0
 20
-713.0
 30
0.0
 40
0.5
100
AcDbArc
 50
0.0
 51
90.0
  0
ARC
  5
3A1
330
4E3
100
AcDbEntity
  8
DATA
  6
Continuous
 62
     7
100
AcDbCircle
 10
54.99999999254942
 20
-734.9999999925493
 30
0.0
 40
0.5000000074505806
100
AcDbArc
 50
270.0
 51
0.0
  0
ARC
  5
3A2
330
4E3
100
AcDbEntity
  8
DATA
  6
Continuous
 62
     7
100
AcDbCircle
 10
52.0
 20
-724.0
 30
0.0
 40
5.0
100
AcDbArc
 50
306.8698976458441
 51
53.13010235415595
  0
LINE
  5
3A3
330
4E3
100
AcDbEntity
  8
DATA
  6
Continuous
 62
     7
100
AcDbLine
 10
55.0
 20
-720.0
 30
0.0
 11
54.0
 21
-720.0
 31
0.0
  0
LINE
  5
3A4
330
4E3
100
AcDbEntity
  8
DATA
  6
Continuous
 62
     7
100
AcDbLine
 10
55.0
 20
-728.0
 30
0.0
 11
54.0
 21
-728.0
 31
0.0
  0
LINE
  5
3A5
330
4E3
100
AcDbEntity
  8
DATA
  6
Continuous
 62
     7
100
AcDbLine
 10
-255.5
 20
-720.2000000000001
 30
0.0
 11
-255.5
 21
-728.7999999999998
 31
0.0
  0
LINE
  5
3A6
330
4E3
100
AcDbEntity
  8
DATA
  6
Continuous
 62
     7
100
AcDbLine
 10
-250.0
 20
-720.2000000000001
 30
0.0
 11
-255.5
 21
-720.2000000000001
 31
0.0
  0
LINE
  5
3A7
330
4E3
100
AcDbEntity
  8
DATA
  6
Continuous
 62
     7
100
AcDbLine
 10
-250.0
 20
-728.7999999999998
 30
0.0
 11
-255.5
 21
-728.7999999999998
 31
0.0
  0
LINE
  5
3A8
330
4E3
100
AcDbEntity
  8
DATA
  6
Continuous
 62
     7
100
AcDbLine
 10
-261.5
 20
-716.8499999999998
 30
0.0
 11
-261.5
 21
-733.1500000000001
 31
0.0
  0
LINE
  5
3A9
330
4E3
100
AcDbEntity
  8
DATA
  6
Continuous
 62
     7
100
AcDbLine
 10
-250.0
 20
-716.8499999999998
 30
0.0
 11
-261.5
 21
-716.8499999999998
 31
0.0
  0
LINE
  5
3AA
330
4E3
100
AcDbEntity
  8
DATA
  6
Continuous
 62
     7
100
AcDbLine
 10
-250.0
 20
-733.1500000000001
 30
0.0
 11
-261.5
 21
-733.1500000000001
 31
0.0
  0
LINE
  5
3AB
330
4E3
100
AcDbEntity
  8
DATA
  6
Continuous
 62
     7
100
AcDbLine
 10
44.5
 20
-730.6213203435595
 30
0.0
 11
44.5
 21
-729.3786796564404
 31
0.0
  0
LINE
  5
3AC
330
4E3
100
AcDbEntity
  8
DATA
  6
Continuous
 62
     7
100
AcDbLine
 10
43.62132034355955
 20
-731.5
 30
0.0
 11
44.5
 21
-730.6213203435595
 31
0.0
  0
LINE
  5
3AD
330
4E3
100
AcDbEntity
  8
DATA
  6
Continuous
 62
     7
100
AcDbLine
 10
42.37867965644023
 20
-731.5
 30
0.0
 11
43.62132034355955
 21
-731.5
 31
0.0
  0
LINE
  5
3AE
330
4E3
100
AcDbEntity
  8
DATA
  6
Continuous
 62
     7
100
AcDbLine
 10
41.5
 20
-730.6213203435595
 30
0.0
 11
42.37867965644023
 21
-731.5
 31
0.0
  0
LINE
  5
3AF
330
4E3
100
AcDbEntity
  8
DATA
  6
Continuous
 62
     7
100
AcDbLine
 10
41.5
 20
-729.3786796564404
 30
0.0
 11
41.5
 21
-730.6213203435595
 31
0.0
  0
LINE
  5
3B0
330
4E3
100
AcDbEntity
  8
DATA
  6
Continuous
 62
     7
100
AcDbLine
 10
42.37867965644023
 20
-728.5
 30
0.0
 11
41.5
 21
-729.3786796564404
 31
0.0
  0
LINE
  5
3B1
330
4E3
100
AcDbEntity
  8
DATA
  6
Continuous
 62
     7
100
AcDbLine
 10
43.62132034355955
 20
-728.5
 30
0.0
 11
42.37867965644023
 21
-728.5
 31
0.0
  0
LINE
  5
3B2
330
4E3
100
AcDbEntity
  8
DATA
  6
Continuous
 62
     7
100
AcDbLine
 10
44.5
 20
-729.3786796564404
 30
0.0
 11
43.62132034355955
 21
-728.5
 31
0.0
  0
LINE
  5
3B3
330
4E3
100
AcDbEntity
  8
DATA
  6
Continuous
 62
     7
100
AcDbLine
 10
24.0
 20
-736.1213203435595
 30
0.0
 11
24.0
 21
-734.8786796564404
 31
0.0
  0
LINE
  5
3B4
330
4E3
100
AcDbEntity
  8
DATA
  6
Continuous
 62
     7
100
AcDbLine
 10
23.12132034355977
 20
-737.0
 30
0.0
 11
24.0
 21
-736.1213203435595
 31
0.0
  0
LINE
  5
3B5
330
4E3
100
AcDbEntity
  8
DATA
  6
Continuous
 62
     7
100
AcDbLine
 10
21.87867965644022
 20
-737.0
 30
0.0
 11
23.12132034355977
 21
-737.0
 31
0.0
  0
LINE
  5
3B6
330
4E3
100
AcDbEntity
  8
DATA
  6
Continuous
 62
     7
100
AcDbLine
 10
21.0
 20
-736.1213203435595
 30
0.0
 11
21.87867965644022
 21
-737.0
 31
0.0
  0
LINE
  5
3B7
330
4E3
100
AcDbEntity
  8
DATA
  6
Continuous
 62
     7
100
AcDbLine
 10
21.0
 20
-734.8786796564404
 30
0.0
 11
21.0
 21
-736.1213203435595
 31
0.0
  0
LINE
  5
3B8
330
4E3
100
AcDbEntity
  8
DATA
  6
Continuous
 62
     7
100
AcDbLine
 10
21.87867965644022
 20
-734.0
 30
0.0
 11
21.0
 21
-734.8786796564404
 31
0.0
  0
LINE
  5
3B9
330
4E3
100
AcDbEntity
  8
DATA
  6
Continuous
 62
     7
100
AcDbLine
 10
23.12132034355977
 20
-734.0
 30
0.0
 11
21.87867965644022
 21
-734.0
 31
0.0
  0
LINE
  5
3BA
330
4E3
100
AcDbEntity
  8
DATA
  6
Continuous
 62
     7
100
AcDbLine
 10
24.0
 20
-734.8786796564404
 30
0.0
 11
23.12132034355977
 21
-734.0
 31
0.0
  0
LINE
  5
3BB
330
4E3
100
AcDbEntity
  8
DATA
  6
Continuous
 62
     7
100
AcDbLine
 10
-135.0
 20
-736.1213203435595
 30
0.0
 11
-135.0
 21
-734.8786796564404
 31
0.0
  0
LINE
  5
3BC
330
4E3
100
AcDbEntity
  8
DATA
  6
Continuous
 62
     7
100
AcDbLine
 10
-135.8786796564402
 20
-737.0
 30
0.0
 11
-135.0
 21
-736.1213203435595
 31
0.0
  0
LINE
  5
3BD
330
4E3
100
AcDbEntity
  8
DATA
  6
Continuous
 62
     7
100
AcDbLine
 10
-137.1213203435597
 20
-737.0
 30
0.0
 11
-135.8786796564402
 21
-737.0
 31
0.0
  0
LINE
  5
3BE
330
4E3
100
AcDbEntity
  8
DATA
  6
Continuous
 62
     7
100
AcDbLine
 10
-138.0
 20
-736.1213203435595
 30
0.0
 11
-137.1213203435597
 21
-737.0
 31
0.0
  0
LINE
  5
3BF
330
4E3
100
AcDbEntity
  8
DATA
  6
Continuous
 62
     7
100
AcDbLine
 10
-138.0
 20
-734.8786796564404
 30
0.0
 11
-138.0
 21
-736.1213203435595
 31
0.0
  0
LINE
  5
3C0
330
4E3
100
AcDbEntity
  8
DATA
  6
Continuous
 62
     7
100
AcDbLine
 10
-137.1213203435597
 20
-734.0
 30
0.0
 11
-138.0
 21
-734.8786796564404
 31
0.0
  0
LINE
  5
3C1
330
4E3
100
AcDbEntity
  8
DATA
  6
Continuous
 62
     7
100
AcDbLine
 10
-135.8786796564402
 20
-734.0
 30
0.0
 11
-137.1213203435597
 21
-734.0
 31
0.0
  0
LINE
  5
3C2
330
4E3
100
AcDbEntity
  8
DATA
  6
Continuous
 62
     7
100
AcDbLine
 10
-135.0
 20
-734.8786796564404
 30
0.0
 11
-135.8786796564402
 21
-734.0
 31
0.0
  0
LINE
  5
3C3
330
4E3
100
AcDbEntity
  8
DATA
  6
Continuous
 62
     7
100
AcDbLine
 10
54.0
 20
-705.4999999999999
 30
0.0
 11
-250.0
 21
-705.4999999999999
 31
0.0
  0
CIRCLE
  5
3C4
330
4E3
100
AcDbEntity
  8
DATA
  6
Continuous
 62
     7
100
AcDbCircle
 10
-229.5
 20
-744.0
 30
0.0
 40
2.75
  0
LINE
  5
3C5
330
4E3
100
AcDbEntity
  8
DATA
  6
Continuous
 62
     7
100
AcDbLine
 10
-228.0
 20
-744.6213203435595
 30
0.0
 11
-228.0
 21
-743.3786796564405
 31
0.0
  0
LINE
  5
3C6
330
4E3
100
AcDbEntity
  8
DATA
  6
Continuous
 62
     7
100
AcDbLine
 10
-228.8786796564404
 20
-745.5
 30
0.0
 11
-228.0
 21
-744.6213203435595
 31
0.0
  0
LINE
  5
3C7
330
4E3
100
AcDbEntity
  8
DATA
  6
Continuous
 62
     7
100
AcDbLine
 10
-230.1213203435596
 20
-745.5
 30
0.0
 11
-228.8786796564404
 21
-745.5
 31
0.0
  0
LINE
  5
3C8
330
4E3
100
AcDbEntity
  8
DATA
  6
Continuous
 62
     7
100
AcDbLine
 10
-231.0
 20
-744.6213203435595
 30
0.0
 11
-230.1213203435596
 21
-745.5
 31
0.0
  0
LINE
  5
3C9
330
4E3
100
AcDbEntity
  8
DATA
  6
Continuous
 62
     7
100
AcDbLine
 10
-231.0
 20
-743.3786796564405
 30
0.0
 11
-231.0
 21
-744.6213203435595
 31
0.0
  0
LINE
  5
3CA
330
4E3
100
AcDbEntity
  8
DATA
  6
Continuous
 62
     7
100
AcDbLine
 10
-230.1213203435596
 20
-742.4999999999999
 30
0.0
 11
-231.0
 21
-743.3786796564405
 31
0.0
  0
LINE
  5
3CB
330
4E3
100
AcDbEntity
  8
DATA
  6
Continuous
 62
     7
100
AcDbLine
 10
-228.8786796564404
 20
-742.4999999999999
 30
0.0
 11
-230.1213203435596
 21
-742.4999999999999
 31
0.0
  0
LINE
  5
3CC
330
4E3
100
AcDbEntity
  8
DATA
  6
Continuous
 62
     7
100
AcDbLine
 10
-228.0
 20
-743.3786796564405
 30
0.0
 11
-228.8786796564404
 21
-742.4999999999999
 31
0.0
  0
CIRCLE
  5
3CD
330
4E3
100
AcDbEntity
  8
DATA
  6
Continuous
 62
     7
100
AcDbCircle
 10
-239.0
 20
-715.0
 30
0.0
 40
1.5
  0
CIRCLE
  5
3CE
330
4E3
100
AcDbEntity
  8
DATA
  6
Continuous
 62
     7
100
AcDbCircle
 10
-239.0
 20
-741.5
 30
0.0
 40
1.5
  0
LINE
  5
3CF
330
4E3
100
AcDbEntity
  8
DATA
  6
Continuous
 62
     7
100
AcDbLine
 10
-300.0
 20
125.0
 30
0.0
 11
-300.0
 21
169.5
 31
0.0
  0
LINE
  5
3D0
330
4E3
100
AcDbEntity
  8
DATA
  6
Continuous
 62
     7
100
AcDbLine
 10
-323.0
 20
126.0
 30
0.0
 11
-323.0
 21
168.5
 31
0.0
  0
LINE
  5
3D1
330
4E3
100
AcDbEntity
  8
DATA
  6
Continuous
 62
     7
100
AcDbLine
 10
-300.0
 20
125.0
 30
0.0
 11
-322.0
 21
125.0
 31
0.0
  0
LINE
  5
3D2
330
4E3
100
AcDbEntity
  8
DATA
  6
Continuous
 62
     7
100
AcDbLine
 10
-317.0
 20
166.1499999999999
 30
0.0
 11
-312.0
 21
166.1499999999999
 31
0.0
  0
LINE
  5
3D3
330
4E3
100
AcDbEntity
  8
DATA
  6
Continuous
 62
     7
100
AcDbLine
 10
-312.0
 20
159.1499999999999
 30
0.0
 11
-317.0
 21
159.1499999999999
 31
0.0
  0
ARC
  5
3D4
330
4E3
100
AcDbEntity
  8
DATA
  6
Continuous
 62
     7
100
AcDbCircle
 10
-317.0
 20
162.6499999999999
 30
0.0
 40
3.5
100
AcDbArc
 50
90.0
 51
270.0
  0
ARC
  5
3D5
330
4E3
100
AcDbEntity
  8
DATA
  6
Continuous
 62
     7
100
AcDbCircle
 10
-312.0
 20
162.6499999999999
 30
0.0
 40
3.5
100
AcDbArc
 50
270.0
 51
90.0
  0
LINE
  5
3D6
330
4E3
100
AcDbEntity
  8
DATA
  6
Continuous
 62
     7
100
AcDbLine
 10
-317.0
 20
127.35
 30
0.0
 11
-312.0
 21
127.35
 31
0.0
  0
LINE
  5
3D7
330
4E3
100
AcDbEntity
  8
DATA
  6
Continuous
 62
     7
100
AcDbLine
 10
-312.0
 20
134.35
 30
0.0
 11
-317.0
 21
134.35
 31
0.0
  0
ARC
  5
3D8
330
4E3
100
AcDbEntity
  8
DATA
  6
Continuous
 62
     7
100
AcDbCircle
 10
-317.0
 20
130.85
 30
0.0
 40
3.5
100
AcDbArc
 50
90.0
 51
270.0
  0
ARC
  5
3D9
330
4E3
100
AcDbEntity
  8
DATA
  6
Continuous
 62
     7
100
AcDbCircle
 10
-312.0
 20
130.85
 30
0.0
 40
3.5
100
AcDbArc
 50
270.0
 51
90.0
  0
LINE
  5
3DA
330
4E3
100
AcDbEntity
  8
DATA
  6
Continuous
 62
     7
100
AcDbLine
 10
-322.0
 20
169.5
 30
0.0
 11
-300.0
 21
169.5
 31
0.0
  0
LINE
  5
3DB
330
4E3
100
AcDbEntity
  8
DATA
  6
Continuous
 62
     7
100
AcDbLine
 10
-25.0
 20
169.5
 30
0.0
 11
-25.0
 21
125.0
 31
0.0
  0
LINE
  5
3DC
330
4E3
100
AcDbEntity
  8
DATA
  6
Continuous
 62
     7
100
AcDbLine
 10
-25.0
 20
125.0
 30
0.0
 11
215.0000000000003
 21
125.0
 31
0.0
  0
LINE
  5
3DD
330
4E3
100
AcDbEntity
  8
DATA
  6
Continuous
 62
     7
100
AcDbLine
 10
216.0000000000003
 20
126.0
 30
0.0
 11
216.0000000000003
 21
168.5
 31
0.0
  0
LINE
  5
3DE
330
4E3
100
AcDbEntity
  8
DATA
  6
Continuous
 62
     7
100
AcDbLine
 10
210.0000000000003
 20
166.1499999999999
 30
0.0
 11
205.0000000000002
 21
166.1499999999999
 31
0.0
  0
LINE
  5
3DF
330
4E3
100
AcDbEntity
  8
DATA
  6
Continuous
 62
     7
100
AcDbLine
 10
205.0000000000002
 20
159.1499999999999
 30
0.0
 11
210.0000000000003
 21
159.1499999999999
 31
0.0
  0
ARC
  5
3E0
330
4E3
100
AcDbEntity
  8
DATA
  6
Continuous
 62
     7
100
AcDbCircle
 10
210.0000000000003
 20
162.6499999999999
 30
0.0
 40
3.5
100
AcDbArc
 50
270.0
 51
90.0
  0
ARC
  5
3E1
330
4E3
100
AcDbEntity
  8
DATA
  6
Continuous
 62
     7
100
AcDbCircle
 10
205.0000000000002
 20
162.6499999999999
 30
0.0
 40
3.5
100
AcDbArc
 50
90.0
 51
270.0
  0
LINE
  5
3E2
330
4E3
100
AcDbEntity
  8
DATA
  6
Continuous
 62
     7
100
AcDbLine
 10
210.0000000000003
 20
127.35
 30
0.0
 11
205.0000000000002
 21
127.35
 31
0.0
  0
LINE
  5
3E3
330
4E3
100
AcDbEntity
  8
DATA
  6
Continuous
 62
     7
100
AcDbLine
 10
205.0000000000002
 20
134.35
 30
0.0
 11
210.0000000000003
 21
134.35
 31
0.0
  0
ARC
  5
3E4
330
4E3
100
AcDbEntity
  8
DATA
  6
Continuous
 62
     7
100
AcDbCircle
 10
210.0000000000003
 20
130.85
 30
0.0
 40
3.5
100
AcDbArc
 50
270.0
 51
90.0
  0
ARC
  5
3E5
330
4E3
100
AcDbEntity
  8
DATA
  6
Continuous
 62
     7
100
AcDbCircle
 10
205.0000000000002
 20
130.85
 30
0.0
 40
3.5
100
AcDbArc
 50
90.0
 51
270.0
  0
LINE
  5
3E6
330
4E3
100
AcDbEntity
  8
DATA
  6
Continuous
 62
     7
100
AcDbLine
 10
215.0000000000003
 20
169.5
 30
0.0
 11
-25.0
 21
169.5
 31
0.0
  0
LINE
  5
3E7
330
4E3
100
AcDbEntity
  8
DATA
  6
Continuous
 62
     7
100
AcDbLine
 10
-282.0
 20
-750.0
 30
0.0
 11
-500.0
 21
-750.0
 31
0.0
  0
LINE
  5
3E8
330
4E3
100
AcDbEntity
  8
DATA
  6
Continuous
 62
     7
100
AcDbLine
 10
-382.0
 20
-750.0
 30
0.0
 11
-382.0
 21
-705.4999999999999
 31
0.0
  0
LINE
  5
3E9
330
4E3
100
AcDbEntity
  8
DATA
  6
Continuous
 62
     7
100
AcDbLine
 10
-318.0
 20
-750.0
 30
0.0
 11
-318.0
 21
-705.4999999999999
 31
0.0
  0
CIRCLE
  5
3EA
330
4E3
100
AcDbEntity
  8
DATA
  6
Continuous
 62
     7
100
AcDbCircle
 10
-468.0
 20
-727.5
 30
0.0
 40
6.0
  0
CIRCLE
  5
3EB
330
4E3
100
AcDbEntity
  8
DATA
  6
Continuous
 62
     7
100
AcDbCircle
 10
-468.0
 20
-727.5
 30
0.0
 40
5.5
  0
CIRCLE
  5
3EC
330
4E3
100
AcDbEntity
  8
DATA
  6
Continuous
 62
     7
100
AcDbCircle
 10
-468.0
 20
-727.5
 30
0.0
 40
7.0
  0
TEXT
  5
3ED
330
4E3
100
AcDbEntity
  8
DATA
 62
     7
100
AcDbText
 10
-468.8466666666668
 20
-716.5315071673343
 30
0.0
 40
2.606145833333332
  1
1
 41
0.7
 11
-468.8466666666668
 21
-713.9253613340009
 31
0.0
100
AcDbText
 73
     3
  0
TEXT
  5
3EE
330
4E3
100
AcDbEntity
  8
DATA
 62
     7
100
AcDbText
 10
-445.8466666666668
 20
-716.5315071673343
 30
0.0
 40
2.606145833333332
  1
2
 41
0.7
 11
-445.8466666666668
 21
-713.9253613340009
 31
0.0
100
AcDbText
 73
     3
  0
TEXT
  5
3EF
330
4E3
100
AcDbEntity
  8
DATA
 62
     7
100
AcDbText
 10
-422.8466666666667
 20
-716.5315071673343
 30
0.0
 40
2.606145833333332
  1
3
 41
0.7
 11
-422.8466666666667
 21
-713.9253613340009
 31
0.0
100
AcDbText
 73
     3
  0
TEXT
  5
3F0
330
4E3
100
AcDbEntity
  8
DATA
 62
     7
100
AcDbText
 10
-399.8466666666668
 20
-716.5315071673343
 30
0.0
 40
2.606145833333332
  1
4
 41
0.7
 11
-399.8466666666668
 21
-713.9253613340009
 31
0.0
100
AcDbText
 73
     3
  0
CIRCLE
  5
3F1
330
4E3
100
AcDbEntity
  8
DATA
  6
Continuous
 62
     7
100
AcDbCircle
 10
-474.0
 20
-734.1167140966298
 30
0.0
 40
0.5
  0
CIRCLE
  5
3F2
330
4E3
100
AcDbEntity
  8
DATA
  6
Continuous
 62
     7
100
AcDbCircle
 10
-462.0
 20
-734.1167140966298
 30
0.0
 40
0.5
  0
CIRCLE
  5
3F3
330
4E3
100
AcDbEntity
  8
DATA
  6
Continuous
 62
     7
100
AcDbCircle
 10
-445.0
 20
-727.5
 30
0.0
 40
6.0
  0
CIRCLE
  5
3F4
330
4E3
100
AcDbEntity
  8
DATA
  6
Continuous
 62
     7
100
AcDbCircle
 10
-445.0
 20
-727.5
 30
0.0
 40
5.5
  0
CIRCLE
  5
3F5
330
4E3
100
AcDbEntity
  8
DATA
  6
Continuous
 62
     7
100
AcDbCircle
 10
-445.0
 20
-727.5
 30
0.0
 40
7.0
  0
CIRCLE
  5
3F6
330
4E3
100
AcDbEntity
  8
DATA
  6
Continuous
 62
     7
100
AcDbCircle
 10
-451.0
 20
-734.1167140966298
 30
0.0
 40
0.5
  0
CIRCLE
  5
3F7
330
4E3
100
AcDbEntity
  8
DATA
  6
Continuous
 62
     7
100
AcDbCircle
 10
-439.0
 20
-734.1167140966298
 30
0.0
 40
0.5
  0
CIRCLE
  5
3F8
330
4E3
100
AcDbEntity
  8
DATA
  6
Continuous
 62
     7
100
AcDbCircle
 10
-422.0
 20
-727.5
 30
0.0
 40
6.0
  0
CIRCLE
  5
3F9
330
4E3
100
AcDbEntity
  8
DATA
  6
Continuous
 62
     7
100
AcDbCircle
 10
-422.0
 20
-727.5
 30
0.0
 40
5.5
  0
CIRCLE
  5
3FA
330
4E3
100
AcDbEntity
  8
DATA
  6
Continuous
 62
     7
100
AcDbCircle
 10
-422.0
 20
-727.5
 30
0.0
 40
7.0
  0
CIRCLE
  5
3FB
330
4E3
100
AcDbEntity
  8
DATA
  6
Continuous
 62
     7
100
AcDbCircle
 10
-428.0
 20
-734.1167140966298
 30
0.0
 40
0.5
  0
CIRCLE
  5
3FC
330
4E3
100
AcDbEntity
  8
DATA
  6
Continuous
 62
     7
100
AcDbCircle
 10
-416.0
 20
-734.1167140966298
 30
0.0
 40
0.5
  0
CIRCLE
  5
3FD
330
4E3
100
AcDbEntity
  8
DATA
  6
Continuous
 62
     7
100
AcDbCircle
 10
-399.0
 20
-727.5
 30
0.0
 40
6.0
  0
CIRCLE
  5
3FE
330
4E3
100
AcDbEntity
  8
DATA
  6
Continuous
 62
     7
100
AcDbCircle
 10
-399.0
 20
-727.5
 30
0.0
 40
5.5
  0
CIRCLE
  5
3FF
330
4E3
100
AcDbEntity
  8
DATA
  6
Continuous
 62
     7
100
AcDbCircle
 10
-399.0
 20
-727.5
 30
0.0
 40
7.0
  0
CIRCLE
  5
400
330
4E3
100
AcDbEntity
  8
DATA
  6
Continuous
 62
     7
100
AcDbCircle
 10
-405.0
 20
-734.1167140966298
 30
0.0
 40
0.5
  0
CIRCLE
  5
401
330
4E3
100
AcDbEntity
  8
DATA
  6
Continuous
 62
     7
100
AcDbCircle
 10
-393.0
 20
-734.1167140966298
 30
0.0
 40
0.5
  0
TEXT
  5
402
330
4E3
100
AcDbEntity
  8
DATA
 62
     7
100
AcDbText
 10
-496.2498095677851
 20
-747.1203837634289
 30
0.0
 40
4.104679687499999
  1
CSM 14
 41
0.7
 11
-496.2498095677851
 21
-743.0157040759289
 31
0.0
100
AcDbText
 73
     3
  0
CIRCLE
  5
403
330
4E3
100
AcDbEntity
  8
DATA
  6
Continuous
 62
     7
100
AcDbCircle
 10
-300.0
 20
-724.5
 30
0.0
 40
4.300000000000181
  0
CIRCLE
  5
404
330
4E3
100
AcDbEntity
  8
DATA
  6
Continuous
 62
     7
100
AcDbCircle
 10
-300.0
 20
-724.5
 30
0.0
 40
4.25
  0
CIRCLE
  5
405
330
4E3
100
AcDbEntity
  8
DATA
  6
Continuous
 62
     7
100
AcDbCircle
 10
-300.0
 20
-724.5
 30
0.0
 40
5.5
  0
ARC
  5
406
330
4E3
100
AcDbEntity
  8
DATA
  6
Continuous
 62
     7
100
AcDbCircle
 10
-299.9999999999996
 20
-713.5000000000017
 30
0.0
 40
1.500000000001758
100
AcDbArc
 50
109.9194240752457
 51
70.08057592478839
  0
LINE
  5
407
330
4E3
100
AcDbEntity
  8
DATA
  6
Continuous
 62
     7
100
AcDbLine
 10
-299.9999999999996
 20
-713.5000000000017
 30
0.0
 11
-299.9999999999996
 21
-711.1571028333757
 31
0.0
  0
CIRCLE
  5
408
330
4E3
100
AcDbEntity
  8
DATA
  6
Continuous
 62
     7
100
AcDbCircle
 10
-350.0
 20
-725.0
 30
0.0
 40
7.5
  0
CIRCLE
  5
409
330
4E3
100
AcDbEntity
  8
DATA
  6
Continuous
 62
     7
100
AcDbCircle
 10
-350.0
 20
-725.0
 30
0.0
 40
8.15000000000009
  0
CIRCLE
  5
40A
330
4E3
100
AcDbEntity
  8
DATA
  6
Continuous
 62
     7
100
AcDbCircle
 10
-350.0
 20
-725.0
 30
0.0
 40
10.0
  0
TEXT
  5
40B
330
4E3
100
AcDbEntity
  8
DATA
 62
     7
100
AcDbText
 10
-354.2752246970094
 20
-713.4541260734381
 30
0.0
 40
2.215223958333332
  1
MASTER
 41
0.7
 11
-354.2752246970094
 21
-711.2389021151048
 31
0.0
100
AcDbText
 73
     3
  0
CIRCLE
  5
40C
330
4E3
100
AcDbEntity
  8
DATA
  6
Continuous
 62
     7
100
AcDbCircle
 10
-343.0
 20
-734.3532059536719
 30
0.0
 40
0.6500000000000911
  0
CIRCLE
  5
40D
330
4E3
100
AcDbEntity
  8
DATA
  6
Continuous
 62
     7
100
AcDbCircle
 10
-357.0
 20
-734.3532059536719
 30
0.0
 40
0.6500000000000911
  0
CIRCLE
  5
40E
330
4E3
100
AcDbEntity
  8
DATA
  6
Continuous
 62
     7
100
AcDbCircle
 10
-354.75
 20
-743.0
 30
0.0
 40
2.800000000000181
  0
LINE
  5
40F
330
4E3
100
AcDbEntity
  8
DATA
  6
Continuous
 62
     7
100
AcDbLine
 10
-353.25
 20
-740.6356819164924
 30
0.0
 11
-353.25
 21
-745.3643180835074
 31
0.0
  0
LINE
  5
410
330
4E3
100
AcDbEntity
  8
DATA
  6
Continuous
 62
     7
100
AcDbLine
 10
-356.25
 20
-745.3643180835074
 30
0.0
 11
-356.25
 21
-740.6356819164924
 31
0.0
  0
CIRCLE
  5
411
330
4E3
100
AcDbEntity
  8
DATA
  6
Continuous
 62
     7
100
AcDbCircle
 10
-345.25
 20
-743.0
 30
0.0
 40
2.800000000000181
  0
LINE
  5
412
330
4E3
100
AcDbEntity
  8
DATA
  6
Continuous
 62
     7
100
AcDbLine
 10
-343.75
 20
-740.6356819164924
 30
0.0
 11
-343.75
 21
-745.3643180835074
 31
0.0
  0
LINE
  5
413
330
4E3
100
AcDbEntity
  8
DATA
  6
Continuous
 62
     7
100
AcDbLine
 10
-346.75
 20
-745.3643180835074
 30
0.0
 11
-346.75
 21
-740.6356819164924
 31
0.0
  0
LWPOLYLINE
  5
414
330
4E3
100
AcDbEntity
  8
DATA
  6
Continuous
 62
     7
100
AcDbPolyline
 90
        4
 70
     1
 43
0.0
 10
-494.519697673209
 20
-711.2764174792336
 10
-487.519697673209
 20
-711.2764174792336
 10
-487.519697673209
 20
-718.2764174792335
 10
-494.519697673209
 20
-718.2764174792335
  0
ARC
  5
41B
330
4E3
100
AcDbEntity
  8
DATA
  6
Continuous
 62
     7
100
AcDbCircle
 10
-490.7045120503403
 20
-715.7352145361475
 30
0.0
 40
0.084350012180985
100
AcDbArc
 50
307.6419024974331
 51
354.2670192894972
  0
LINE
  5
41C
330
4E3
100
AcDbEntity
  8
DATA
  6
Continuous
 62
     7
100
AcDbLine
 10
-492.8711445291419
 20
-714.405994860509
 30
0.0
 11
-492.4757104131417
 21
-713.4637860125089
 31
0.0
  0
LINE
  5
41D
330
4E3
100
AcDbEntity
  8
DATA
  6
Continuous
 62
     7
100
AcDbLine
 10
-492.8711445291419
 20
-714.405994860509
 30
0.0
 11
-493.2616994211421
 21
-713.4637860125089
 31
0.0
  0
LINE
  5
41E
330
4E3
100
AcDbEntity
  8
DATA
  6
Continuous
 62
     7
100
AcDbLine
 10
-489.8736498891416
 20
-716.1097860125089
 30
0.0
 11
-489.8736498891416
 21
-713.4637860125089
 31
0.0
  0
LINE
  5
41F
330
4E3
100
AcDbEntity
  8
DATA
  6
Continuous
 62
     7
100
AcDbLine
 10
-489.3659301171419
 20
-713.4637860125089
 30
0.0
 11
-489.3659301171419
 21
-715.7045881565089
 31
0.0
  0
LINE
  5
420
330
4E3
100
AcDbEntity
  8
DATA
  6
Continuous
 62
     7
100
AcDbLine
 10
-492.2901967071417
 20
-713.4637860125089
 30
0.0
 11
-492.2901967071417
 21
-715.7045881565089
 31
0.0
  0
LINE
  5
421
330
4E3
100
AcDbEntity
  8
DATA
  6
Continuous
 62
     7
100
AcDbLine
 10
-491.8020044151417
 20
-713.4637860125089
 30
0.0
 11
-491.8020044151417
 21
-715.7045881565089
 31
0.0
  0
LINE
  5
422
330
4E3
100
AcDbEntity
  8
DATA
  6
Continuous
 62
     7
100
AcDbLine
 10
-491.548144529142
 20
-713.4637860125089
 30
0.0
 11
-491.548144529142
 21
-716.1097860125089
 31
0.0
  0
LINE
  5
423
330
4E3
100
AcDbEntity
  8
DATA
  6
Continuous
 62
     7
100
AcDbLine
 10
-491.1038890671419
 20
-713.7127613825088
 30
0.0
 11
-491.1038890671419
 21
-714.5622173465089
 31
0.0
  0
LINE
  5
424
330
4E3
100
AcDbEntity
  8
DATA
  6
Continuous
 62
     7
100
AcDbLine
 10
-490.1517047991419
 20
-714.5130652505089
 30
0.0
 11
-490.1517047991419
 21
-713.8933958645089
 31
0.0
  0
LINE
  5
425
330
4E3
100
AcDbEntity
  8
DATA
  6
Continuous
 62
     7
100
AcDbLine
 10
-490.6205839371418
 20
-713.8299289085089
 30
0.0
 11
-490.6205839371418
 21
-714.445052466509
 31
0.0
  0
ARC
  5
426
330
4E3
100
AcDbEntity
  8
DATA
  6
Continuous
 62
     7
100
AcDbCircle
 10
-492.3881622111416
 20
-715.4303461325087
 30
0.0
 40
0.6823646162994552
100
AcDbArc
 50
264.6908562215302
 51
323.9911991542188
  0
LINE
  5
427
330
4E3
100
AcDbEntity
  8
DATA
  6
Continuous
 62
     7
100
AcDbLine
 10
-492.6612214731417
 20
-715.279857528509
 30
0.0
 11
-492.6612214731417
 21
-715.7045828645087
 31
0.0
  0
LINE
  5
428
330
4E3
100
AcDbEntity
  8
DATA
  6
Continuous
 62
     7
100
AcDbLine
 10
-492.6612214731417
 20
-715.279857528509
 30
0.0
 11
-493.1005950651419
 21
-715.279857528509
 31
0.0
  0
LINE
  5
429
330
4E3
100
AcDbEntity
  8
DATA
  6
Continuous
 62
     7
100
AcDbLine
 10
-493.1005950651419
 20
-715.279857528509
 30
0.0
 11
-493.1005950651419
 21
-715.7045828645087
 31
0.0
  0
ARC
  5
42A
330
4E3
100
AcDbEntity
  8
DATA
  6
Continuous
 62
     7
100
AcDbCircle
 10
-492.4747790211417
 20
-715.7103088085088
 30
0.0
 40
0.1846719674238452
100
AcDbArc
 50
269.7118487926805
 51
1.775987005659715
  0
ARC
  5
42B
330
4E3
100
AcDbEntity
  8
DATA
  6
Continuous
 62
     7
100
AcDbCircle
 10
-492.4766391591419
 20
-715.7103088085088
 30
0.0
 40
0.1846710231235281
100
AcDbArc
 50
178.2240129943046
 51
270.2881512073552
  0
ARC
  5
42C
330
4E3
100
AcDbEntity
  8
DATA
  6
Continuous
 62
     7
100
AcDbCircle
 10
-492.5144372691421
 20
-715.4303461325087
 30
0.0
 40
0.6823635080958198
100
AcDbArc
 50
216.0088008457617
 51
275.3091437784757
  0
ARC
  5
42D
330
4E3
100
AcDbEntity
  8
DATA
  6
Continuous
 62
     7
100
AcDbCircle
 10
-492.7922196411418
 20
-715.6896250265089
 30
0.0
 40
0.3087353350833346
100
AcDbArc
 50
182.7769954499708
 51
207.3596066671282
  0
CIRCLE
  5
42E
330
4E3
100
AcDbEntity
  8
DATA
  6
Continuous
 62
     7
100
AcDbCircle
 10
-492.844292921142
 20
-714.7721404025089
 30
0.0
 40
0.2514176280001266
  0
LINE
  5
42F
330
4E3
100
AcDbEntity
  8
DATA
  6
Continuous
 62
     7
100
AcDbLine
 10
-488.5506498891417
 20
-716.1097833665089
 30
0.0
 11
-489.8736498891416
 21
-716.1097833665089
 31
0.0
  0
LINE
  5
430
330
4E3
100
AcDbEntity
  8
DATA
  6
Continuous
 62
     7
100
AcDbLine
 10
-488.5506498891417
 20
-716.1097833665089
 30
0.0
 11
-488.5506498891417
 21
-715.279854882509
 31
0.0
  0
LINE
  5
431
330
4E3
100
AcDbEntity
  8
DATA
  6
Continuous
 62
     7
100
AcDbLine
 10
-488.5506498891417
 20
-715.279857528509
 30
0.0
 11
-488.9949027051415
 21
-715.279857528509
 31
0.0
  0
LINE
  5
432
330
4E3
100
AcDbEntity
  8
DATA
  6
Continuous
 62
     7
100
AcDbLine
 10
-488.9949027051415
 20
-715.279857528509
 30
0.0
 11
-488.9949027051415
 21
-715.7045828645087
 31
0.0
  0
LINE
  5
433
330
4E3
100
AcDbEntity
  8
DATA
  6
Continuous
 62
     7
100
AcDbLine
 10
-491.548144529142
 20
-716.1097833665089
 30
0.0
 11
-490.6205839371418
 21
-716.109780720509
 31
0.0
  0
LINE
  5
434
330
4E3
100
AcDbEntity
  8
DATA
  6
Continuous
 62
     7
100
AcDbLine
 10
-491.1038917131417
 20
-715.8608053505091
 30
0.0
 11
-490.8646774371417
 21
-715.8608053505091
 31
0.0
  0
LINE
  5
435
330
4E3
100
AcDbEntity
  8
DATA
  6
Continuous
 62
     7
100
AcDbLine
 10
-491.1038890671419
 20
-715.8608053505091
 30
0.0
 11
-491.1038890671419
 21
-714.816074586509
 31
0.0
  0
LINE
  5
436
330
4E3
100
AcDbEntity
  8
DATA
  6
Continuous
 62
     7
100
AcDbLine
 10
-491.1038917131417
 20
-714.816074586509
 30
0.0
 11
-490.8646774371417
 21
-714.816074586509
 31
0.0
  0
LINE
  5
437
330
4E3
100
AcDbEntity
  8
DATA
  6
Continuous
 62
     7
100
AcDbLine
 10
-490.6205839371418
 20
-715.7436404705086
 30
0.0
 11
-490.6205839371418
 21
-714.9332394665089
 31
0.0
  0
ARC
  5
438
330
4E3
100
AcDbEntity
  8
DATA
  6
Continuous
 62
     7
100
AcDbCircle
 10
-492.1103798391418
 20
-715.6896250265089
 30
0.0
 40
0.3087348957650202
100
AcDbArc
 50
332.6403933328585
 51
357.2230045499916
  0
ARC
  5
439
330
4E3
100
AcDbEntity
  8
DATA
  6
Continuous
 62
     7
100
AcDbCircle
 10
-489.1794876651419
 20
-715.7103088085088
 30
0.0
 40
0.1846719674238429
100
AcDbArc
 50
269.7118487928216
 51
1.775987005655281
  0
ARC
  5
43A
330
4E3
100
AcDbEntity
  8
DATA
  6
Continuous
 62
     7
100
AcDbCircle
 10
-489.181345157142
 20
-715.7103088085088
 30
0.0
 40
0.1846710231235281
100
AcDbArc
 50
178.2240129943046
 51
270.2881512073552
  0
LINE
  5
43B
330
4E3
100
AcDbEntity
  8
DATA
  6
Continuous
 62
     7
100
AcDbLine
 10
-490.1519191251417
 20
-715.6850553845089
 30
0.0
 11
-490.1519191251417
 21
-714.9820608125089
 31
0.0
  0
LINE
  5
43C
330
4E3
100
AcDbEntity
  8
DATA
  6
Continuous
 62
     7
100
AcDbLine
 10
-491.1038917131417
 20
-714.5622173465089
 30
0.0
 11
-490.8646774371417
 21
-714.5622173465089
 31
0.0
  0
ARC
  5
43D
330
4E3
100
AcDbEntity
  8
DATA
  6
Continuous
 62
     7
100
AcDbCircle
 10
-490.6542198891421
 20
-715.6074746645088
 30
0.0
 40
0.5034309795406903
100
AcDbArc
 50
273.8309816091335
 51
351.1351473097694
  0
LINE
  5
43E
330
4E3
100
AcDbEntity
  8
DATA
  6
Continuous
 62
     7
100
AcDbLine
 10
-492.2901967071417
 20
-713.4637860125089
 30
0.0
 11
-491.8020044151417
 21
-713.4637860125089
 31
0.0
  0
LINE
  5
43F
330
4E3
100
AcDbEntity
  8
DATA
  6
Continuous
 62
     7
100
AcDbLine
 10
-493.2616994211421
 20
-713.4637860125089
 30
0.0
 11
-492.4757104131417
 21
-713.4637860125089
 31
0.0
  0
LINE
  5
440
330
4E3
100
AcDbEntity
  8
DATA
  6
Continuous
 62
     7
100
AcDbLine
 10
-489.8736498891416
 20
-713.4637860125089
 30
0.0
 11
-489.3659301171419
 21
-713.4637860125089
 31
0.0
  0
LINE
  5
441
330
4E3
100
AcDbEntity
  8
DATA
  6
Continuous
 62
     7
100
AcDbLine
 10
-491.548144529142
 20
-713.4637860125089
 30
0.0
 11
-490.6154850612343
 21
-713.4637881541126
 31
0.0
  0
LINE
  5
442
330
4E3
100
AcDbEntity
  8
DATA
  6
Continuous
 62
     7
100
AcDbLine
 10
-491.1038917131417
 20
-713.712764028509
 30
0.0
 11
-490.8646774371417
 21
-713.712764028509
 31
0.0
  0
ARC
  5
443
330
4E3
100
AcDbEntity
  8
DATA
  6
Continuous
 62
     7
100
AcDbCircle
 10
-490.6492004271417
 20
-713.9653247285089
 30
0.0
 40
0.5026685402481906
100
AcDbArc
 50
8.226923859022347
 51
86.15412669216786
  0
ARC
  5
444
330
4E3
100
AcDbEntity
  8
DATA
  6
Continuous
 62
     7
100
AcDbCircle
 10
-490.8618527097369
 20
-715.3967795161377
 30
0.0
 40
0.4640344319649535
100
AcDbArc
 50
269.651219937605
 51
282.8264828068803
  0
ARC
  5
445
330
4E3
100
AcDbEntity
  8
DATA
  6
Continuous
 62
     7
100
AcDbCircle
 10
-490.8097342982741
 20
-715.5929640828596
 30
0.0
 40
0.2612760693172374
100
AcDbArc
 50
281.2331036227024
 51
306.8620088940451
  0
ARC
  5
446
330
4E3
100
AcDbEntity
  8
DATA
  6
Continuous
 62
     7
100
AcDbCircle
 10
-490.7045120503403
 20
-714.9416654008703
 30
0.0
 40
0.0843500121808952
100
AcDbArc
 50
5.732980710656545
 51
52.35809750251984
  0
ARC
  5
447
330
4E3
100
AcDbEntity
  8
DATA
  6
Continuous
 62
     7
100
AcDbCircle
 10
-490.8618527097369
 20
-715.2801004208804
 30
0.0
 40
0.4640344319648704
100
AcDbArc
 50
77.17351719311974
 51
90.34878006239507
  0
ARC
  5
448
330
4E3
100
AcDbEntity
  8
DATA
  6
Continuous
 62
     7
100
AcDbCircle
 10
-490.8097342982741
 20
-715.0839158541581
 30
0.0
 40
0.2612760693170976
100
AcDbArc
 50
53.13799110593991
 51
78.76689637729275
  0
ARC
  5
449
330
4E3
100
AcDbEntity
  8
DATA
  6
Continuous
 62
     7
100
AcDbCircle
 10
-490.407967253142
 20
-714.999368298509
 30
0.0
 40
0.2566324081717931
100
AcDbArc
 50
3.867006359855325
 51
88.36163456789099
  0
ARC
  5
44A
330
4E3
100
AcDbEntity
  8
DATA
  6
Continuous
 62
     7
100
AcDbCircle
 10
-490.4082027471416
 20
-714.4860654665089
 30
0.0
 40
0.2568874233101537
100
AcDbArc
 50
271.6892821046632
 51
356.0782829826631
  0
ARC
  5
44B
330
4E3
100
AcDbEntity
  8
DATA
  6
Continuous
 62
     7
100
AcDbCircle
 10
-490.7045120503403
 20
-714.4366265321476
 30
0.0
 40
0.0843500121807149
100
AcDbArc
 50
307.6419024975745
 51
354.2670192894203
  0
ARC
  5
44C
330
4E3
100
AcDbEntity
  8
DATA
  6
Continuous
 62
     7
100
AcDbCircle
 10
-490.8618527097369
 20
-714.0981915121376
 30
0.0
 40
0.4640344319648399
100
AcDbArc
 50
269.651219937605
 51
282.8264828068803
  0
ARC
  5
44D
330
4E3
100
AcDbEntity
  8
DATA
  6
Continuous
 62
     7
100
AcDbCircle
 10
-490.8097342982741
 20
-714.2943760788596
 30
0.0
 40
0.2612760693172374
100
AcDbArc
 50
281.2331036227024
 51
306.8620088940301
  0
ARC
  5
44E
330
4E3
100
AcDbEntity
  8
DATA
  6
Continuous
 62
     7
100
AcDbCircle
 10
-490.7045120503403
 20
-713.8383548428703
 30
0.0
 40
0.0843500121808838
100
AcDbArc
 50
5.732980710579708
 51
52.35809750251984
  0
ARC
  5
44F
330
4E3
100
AcDbEntity
  8
DATA
  6
Continuous
 62
     7
100
AcDbCircle
 10
-490.8618527097369
 20
-714.1767898628801
 30
0.0
 40
0.4640344319646487
100
AcDbArc
 50
77.17351719311349
 51
90.34878006239514
  0
ARC
  5
450
330
4E3
100
AcDbEntity
  8
DATA
  6
Continuous
 62
     7
100
AcDbCircle
 10
-490.8097342982741
 20
-713.9806052961581
 30
0.0
 40
0.2612760693170976
100
AcDbArc
 50
53.13799110593991
 51
78.76689637729275
  0
LINE
  5
451
330
4E3
100
AcDbEntity
  8
DATA
  6
Continuous
 62
     7
100
AcDbLine
 10
-498.8000000000001
 20
-705.4999999999999
 30
0.0
 11
-283.1999999999998
 21
-705.4999999999999
 31
0.0
  0
ARC
  5
452
330
4E3
100
AcDbEntity
  8
DATA
  6
Continuous
 62
     7
100
AcDbCircle
 10
-498.8000000000001
 20
-706.7000000000001
 30
0.0
 40
1.200000000000045
100
AcDbArc
 50
90.0
 51
180.0
  0
ARC
  5
453
330
4E3
100
AcDbEntity
  8
DATA
  6
Continuous
 62
     7
100
AcDbCircle
 10
-283.1999999999998
 20
-706.7000000000001
 30
0.0
 40
1.199999999999818
100
AcDbArc
 50
0.0
 51
90.0
  0
LINE
  5
454
330
4E3
100
AcDbEntity
  8
DATA
  6
Continuous
 62
     7
100
AcDbLine
 10
-500.0
 20
-706.7000000000001
 30
0.0
 11
-500.0
 21
-750.0
 31
0.0
  0
LINE
  5
455
330
4E3
100
AcDbEntity
  8
DATA
  6
Continuous
 62
     7
100
AcDbLine
 10
-282.0
 20
-706.7000000000001
 30
0.0
 11
-282.0
 21
-750.0
 31
0.0
  0
LINE
  5
456
330
4E3
100
AcDbEntity
  8
DATA
  6
Continuous
 62
     7
100
AcDbLine
 10
-275.0
 20
125.0
 30
0.0
 11
-275.0
 21
169.5
 31
0.0
  0
LINE
  5
457
330
4E3
100
AcDbEntity
  8
DATA
  6
Continuous
 62
     7
100
AcDbLine
 10
-254.7000000000001
 20
125.0
 30
0.0
 11
-275.0
 21
125.0
 31
0.0
  0
LINE
  5
458
330
4E3
100
AcDbEntity
  8
DATA
  6
Continuous
 62
     7
100
AcDbLine
 10
-275.0
 20
169.5
 30
0.0
 11
-254.7000000000001
 21
169.5
 31
0.0
  0
LINE
  5
459
330
4E3
100
AcDbEntity
  8
DATA
  6
Continuous
 62
     7
100
AcDbLine
 10
-254.7000000000001
 20
125.0
 30
0.0
 11
-254.7000000000001
 21
169.5
 31
0.0
  0
ARC
  5
45A
330
4E3
100
AcDbEntity
  8
DATA
  6
Continuous
 62
     7
100
AcDbCircle
 10
-322.0
 20
168.5
 30
0.0
 40
1.0
100
AcDbArc
 50
90.0
 51
180.0
  0
ARC
  5
45B
330
4E3
100
AcDbEntity
  8
DATA
  6
Continuous
 62
     7
100
AcDbCircle
 10
-322.0
 20
126.0
 30
0.0
 40
1.0
100
AcDbArc
 50
180.0
 51
270.0
  0
LINE
  5
45C
330
4E3
100
AcDbEntity
  8
DATA
  6
Continuous
 62
     7
100
AcDbLine
 10
-300.0
 20
257.8
 30
0.0
 11
-302.3000000000002
 21
257.8
 31
0.0
  0
CIRCLE
  5
45D
330
4E3
100
AcDbEntity
  8
DATA
  6
Continuous
 62
     7
100
AcDbCircle
 10
-263.5
 20
160.0
 30
0.0
 40
2.039999999999964
  0
CIRCLE
  5
45E
330
4E3
100
AcDbEntity
  8
DATA
  6
Continuous
 62
     7
100
AcDbCircle
 10
-263.5
 20
134.5
 30
0.0
 40
2.039999999999964
  0
TEXT
  5
45F
330
4E3
100
AcDbEntity
  8
DATA
 62
     7
100
AcDbText
 10
18.07562789351846
 20
14.14105902777777
 30
0.0
 40
21.71788194444445
  1
ロングアングルブラケット
 41
0.7
 72
     1
 11
125.0
 21
25.0
 31
0.0
100
AcDbText
 73
     2
  0
LINE
  5
460
330
4E3
100
AcDbEntity
  8
DATA
  6
Continuous
 62
     7
100
AcDbLine
 10
-50.0000000000001
 20
0.0
 30
0.0
 11
300.0
 21
0.0
 31
0.0
  0
LWPOLYLINE
  5
461
330
4E3
100
AcDbEntity
  8
DATA
  6
Continuous
 62
     7
100
AcDbPolyline
 90
        4
 70
     1
 43
0.0
 10
612.5
 20
175.0
 10
614.0999999999994
 20
175.0
 10
614.0999999999994
 20
125.0
 10
612.5
 20
125.0
  0
ARC
  5
468
330
4E3
100
AcDbEntity
  8
DATA
  6
Continuous
 62
     7
100
AcDbCircle
 10
215.0000000000003
 20
168.5
 30
0.0
 40
1.0
100
AcDbArc
 50
0.0
 51
90.0
  0
ARC
  5
469
330
4E3
100
AcDbEntity
  8
DATA
  6
Continuous
 62
     7
100
AcDbCircle
 10
215.0000000000003
 20
126.0
 30
0.0
 40
1.0
100
AcDbArc
 50
270.0
 51
0.0
  0
LINE
  5
46A
330
4E3
100
AcDbEntity
  8
DATA
  6
Continuous
 62
     7
100
AcDbLine
 10
237.5
 20
169.5
 30
0.0
 11
237.5
 21
125.0
 31
0.0
  0
LINE
  5
46B
330
4E3
100
AcDbEntity
  8
DATA
  6
Continuous
 62
     7
100
AcDbLine
 10
258.5
 20
169.5
 30
0.0
 11
258.5
 21
125.0
 31
0.0
  0
LINE
  5
46C
330
4E3
100
AcDbEntity
  8
DATA
  6
Continuous
 62
     7
100
AcDbLine
 10
237.5
 20
169.5
 30
0.0
 11
258.5
 21
169.5
 31
0.0
  0
LINE
  5
46D
330
4E3
100
AcDbEntity
  8
DATA
  6
Continuous
 62
     7
100
AcDbLine
 10
237.5
 20
125.0
 30
0.0
 11
258.5
 21
125.0
 31
0.0
  0
LINE
  5
46E
330
4E3
100
AcDbEntity
  8
DATA
  6
Continuous
 62
     7
100
AcDbLine
 10
239.5
 20
169.5
 30
0.0
 11
239.5
 21
125.0
 31
0.0
  0
CIRCLE
  5
46F
330
4E3
100
AcDbEntity
  8
DATA
  6
Continuous
 62
     7
100
AcDbCircle
 10
249.0
 20
160.0
 30
0.0
 40
2.039999999999964
  0
CIRCLE
  5
470
330
4E3
100
AcDbEntity
  8
DATA
  6
Continuous
 62
     7
100
AcDbCircle
 10
249.0
 20
134.5
 30
0.0
 40
2.039999999999964
  0
TEXT
  5
471
330
4E3
100
AcDbEntity
  8
DATA
 62
     7
100
AcDbText
 10
399.2088893473717
 20
-902.3817745683977
 30
0.0
 40
19.54609375
  1
JBL PROFESSIONAL
 41
0.7
 11
399.2088893473717
 21
-882.8356808183977
 31
0.0
100
AcDbText
 73
     3
  0
TEXT
  5
472
330
4E3
100
AcDbEntity
  8
DATA
 62
     7
100
AcDbText
 10
385.0
 20
-931.7845199999998
 30
0.0
 40
15.20251736111111
  1
ミキサー
 41
0.7
 11
385.0
 21
-916.5820026388887
 31
0.0
100
AcDbText
 73
     3
  0
ENDSEC
  0
SECTION
  2
OBJECTS
  0
DICTIONARY
  5
480
330
0
100
AcDbDictionary
281
     1
  3
ACAD_CIP_PREVIOUS_PRODUCT_INFO
350
4FC
  3
ACAD_COLOR
350
4D6
  3
ACAD_DETAILVIEWSTYLE
350
4DD
  3
ACAD_GROUP
350
481
  3
ACAD_LAYOUT
350
4D5
  3
ACAD_MATERIAL
350
484
  3
ACAD_MLEADERSTYLE
350
4D9
  3
ACAD_MLINESTYLE
350
4D2
  3
ACAD_PLOTSETTINGS
350
4D4
  3
ACAD_PLOTSTYLENAME
350
482
  3
ACAD_SCALELIST
350
4B6
  3
ACAD_SECTIONVIEWSTYLE
350
4DB
  3
ACAD_TABLESTYLE
350
4D7
  3
ACAD_VISUALSTYLE
350
49D
  3
ACDB_RECOMPOSE_DATA
350
514
  3
AcDbVariableDictionary
350
507
  3
DWGPROPS
350
515
  0
DICTIONARY
  5
4FD
330
4C8
100
AcDbDictionary
280
     1
281
     1
  3
ADSK_XREC_LAYER_RECONCILED
360
4FE
  0
DICTIONARY
  5
4FF
330
4E7
100
AcDbDictionary
280
     1
281
     1
  3
ADSK_XREC_LAYER_RECONCILED
360
500
  0
DICTIONARY
  5
501
330
4F4
100
AcDbDictionary
280
     1
281
     1
  3
ADSK_XREC_LAYER_RECONCILED
360
502
  0
DICTIONARY
  5
503
330
4F5
100
AcDbDictionary
280
     1
281
     1
  3
ADSK_XREC_LAYER_RECONCILED
360
504
  0
DICTIONARY
  5
505
330
4F6
100
AcDbDictionary
280
     1
281
     1
  3
ADSK_XREC_LAYER_RECONCILED
360
506
  0
XRECORD
  5
4FC
102
{ACAD_REACTORS
330
480
102
}
330
480
100
AcDbXrecord
280
     1
300
ACDLT
300
2017
300
ACDLT_F_S
  0
DICTIONARY
  5
4D6
102
{ACAD_REACTORS
330
480
102
}
330
480
100
AcDbDictionary
281
     1
  0
DICTIONARY
  5
4DD
102
{ACAD_REACTORS
330
480
102
}
330
480
100
AcDbDictionary
281
     1
  3
Imperial24
350
4DE
  0
DICTIONARY
  5
481
102
{ACAD_REACTORS
330
480
102
}
330
480
100
AcDbDictionary
281
     1
  0
DICTIONARY
  5
4D5
102
{ACAD_REACTORS
330
480
102
}
330
480
100
AcDbDictionary
281
     1
  3
Model
350
4E6
  3
レイアウト1
350
4E2
  0
DICTIONARY
  5
484
102
{ACAD_REACTORS
330
480
102
}
330
480
100
AcDbDictionary
281
     1
  3
ByBlock
350
48D
  3
ByLayer
350
485
  3
Global
350
495
  0
DICTIONARY
  5
4D9
102
{ACAD_REACTORS
330
480
102
}
330
480
100
AcDbDictionary
281
     1
  3
Standard
350
4DA
  0
DICTIONARY
  5
4D2
102
{ACAD_REACTORS
330
480
102
}
330
480
100
AcDbDictionary
281
     1
  3
Standard
350
4D3
  0
DICTIONARY
  5
4D4
102
{ACAD_REACTORS
330
480
102
}
330
480
100
AcDbDictionary
281
     1
  0
ACDBDICTIONARYWDFLT
  5
482
102
{ACAD_REACTORS
330
480
102
}
330
480
100
AcDbDictionary
281
     1
  3
Normal
350
483
100
AcDbDictionaryWithDefault
340
483
  0
DICTIONARY
  5
4B6
102
{ACAD_REACTORS
330
480
102
}
330
480
100
AcDbDictionary
281
     1
  3
A0
350
4B7
  3
A1
350
4B8
  3
A2
350
4B9
  3
A3
350
4BA
  3
A4
350
4BB
  3
A5
350
4BC
  3
A6
350
4BD
  3
A7
350
4BE
  3
A8
350
4BF
  3
A9
350
4C0
  3
B0
350
4C1
  3
B1
350
4C2
  3
B2
350
4C3
  3
B3
350
4C4
  3
B4
350
4C5
  3
B5
350
4C6
  3
B6
350
4C7
  0
DICTIONARY
  5
4DB
102
{ACAD_REACTORS
330
480
102
}
330
480
100
AcDbDictionary
281
     1
  3
Imperial24
350
4DC
  0
DICTIONARY
  5
4D7
102
{ACAD_REACTORS
330
480
102
}
330
480
100
AcDbDictionary
281
     1
  3
Standard
350
4D8
  0
DICTIONARY
  5
49D
102
{ACAD_REACTORS
330
480
102
}
330
480
100
AcDbDictionary
281
     1
  3
2dWireframe
350
4A3
  3
Basic
350
4A2
  3
Brighten
350
4A9
  3
ColorChange
350
4AD
  3
Conceptual
350
4A6
  3
Dim
350
4A8
  3
EdgeColorOff
350
4B5
  3
Facepattern
350
4AC
  3
Flat
350
49E
  3
FlatWithEdges
350
49F
  3
Gouraud
350
4A0
  3
GouraudWithEdges
350
4A1
  3
Hidden
350
4A5
  3
JitterOff
350
4B3
  3
Linepattern
350
4AB
  3
OverhangOff
350
4B4
  3
Realistic
350
4A7
  3
Shaded
350
4B2
  3
Shaded with edges
350
4B1
  3
Shades of Gray
350
4AE
  3
Sketchy
350
4AF
  3
Thicken
350
4AA
  3
Wireframe
350
4A4
  3
X-Ray
350
4B0
  0
XRECORD
  5
514
102
{ACAD_REACTORS
330
480
102
}
330
480
100
AcDbXrecord
280
     1
 90
        1
330
4D8
  0
DICTIONARY
  5
507
102
{ACAD_REACTORS
330
480
102
}
330
480
100
AcDbDictionary
281
     1
  3
CANNOSCALE
350
50C
  3
CMLEADERSTYLE
350
509
  3
CTABLESTYLE
350
508
  3
CVIEWDETAILSTYLE
350
50A
  3
CVIEWSECTIONSTYLE
350
50B
  3
DIMASSOC
350
50F
  3
INDEXCTL
350
50E
  3
SORTENTS
350
50D
  3
XCLIPFRAME
350
510
  0
XRECORD
  5
515
102
{ACAD_REACTORS
330
480
102
}
330
480
100
AcDbXrecord
280
     1
  1
DWGPROPS COOKIE
  2

  3

  4

  6

  7

  8
sasaki_n
  9

300
=
301
=
302
=
303
=
304
=
305
=
306
=
307
=
308
=
309
=
 40
0.0003703703703704
 41
2457812.606747685
 42
2457812.758009259
  1

 90
        0
  0
XRECORD
  5
4FE
102
{ACAD_REACTORS
330
4FD
102
}
330
4FD
100
AcDbXrecord
280
     1
290
     1
  0
XRECORD
  5
500
102
{ACAD_REACTORS
330
4FF
102
}
330
4FF
100
AcDbXrecord
280
     1
290
     1
  0
XRECORD
  5
502
102
{ACAD_REACTORS
330
501
102
}
330
501
100
AcDbXrecord
280
     1
290
     1
  0
XRECORD
  5
504
102
{ACAD_REACTORS
330
503
102
}
330
503
100
AcDbXrecord
280
     1
290
     1
  0
XRECORD
  5
506
102
{ACAD_REACTORS
330
505
102
}
330
505
100
AcDbXrecord
280
     1
290
     1
  0
ACDBDETAILVIEWSTYLE
  5
4DE
102
{ACAD_XDICTIONARY
360
54D
102
}
102
{ACAD_REACTORS
330
4DD
102
}
330
4DD
100
AcDbModelDocViewStyle
 70
     0
  3
Imperial24
290
     0
100
AcDbDetailViewStyle
 70
     0
 71
     0
 90
        3
 71
     1
340
4C9
 40
0.24
340
0
 40
0.24
300

 40
0.36
280
     3
 71
     2
340
4D0
 90
       25
 71
     3
340
4C9
 40
0.24
 90
        1
 40
0.75
 90
        1
300
%<\AcVar ViewType \f "%tc1">% %<\AcVar ViewDetailId>%\PSCALE %<\AcVar ViewScale \f "%sn">%
 71
     4
340
4D0
 90
       25
340
4D0
 90
       25
280
     0
  0
LAYOUT
  5
4E6
102
{ACAD_XDICTIONARY
360
551
102
}
102
{ACAD_REACTORS
330
4D5
102
}
330
4D5
100
AcDbPlotSettings
  1

  2
DocuPrint 3000-2
  4

  6

 40
0.0
 41
0.0
 42
0.0
 43
0.0
 44
0.0
 45
0.0
 46
0.0
 47
0.0
 48
0.0
 49
0.0
140
0.0
141
0.0
142
1.0
143
1.0
 70
  1712
 72
     0
 73
     0
 74
     0
  7

 75
     0
147
1.0
148
0.0
149
0.0
100
AcDbLayout
  1
Model
 70
     1
 71
     0
 10
0.0
 20
0.0
 11
12.0
 21
9.0
 12
0.0
 22
0.0
 32
0.0
 14
0.0
 24
0.0
 34
0.0
 15
0.0
 25
0.0
 35
0.0
146
0.0
 13
0.0
 23
0.0
 33
0.0
 16
1.0
 26
0.0
 36
0.0
 17
0.0
 27
1.0
 37
0.0
 76
     0
330
4E3
331
4E8
  0
LAYOUT
  5
4E2
102
{ACAD_XDICTIONARY
360
54F
102
}
102
{ACAD_REACTORS
330
4D5
102
}
330
4D5
100
AcDbPlotSettings
  1

  2
DocuPrint 3000-2
  4

  6

 40
0.0
 41
0.0
 42
0.0
 43
0.0
 44
0.0
 45
0.0
 46
0.0
 47
0.0
 48
0.0
 49
0.0
140
0.0
141
0.0
142
1.0
143
1.0
 70
   688
 72
     0
 73
     0
 74
     5
  7

 75
    16
147
1.0
148
0.0
149
0.0
100
AcDbLayout
  1
レイアウト1
 70
     0
 71
     1
 10
0.0
 20
0.0
 11
12.0
 21
9.0
 12
0.0
 22
0.0
 32
0.0
 14
1.000000000000000E+20
 24
1.000000000000000E+20
 34
1.000000000000000E+20
 15
-1.000000000000000E+20
 25
-1.000000000000000E+20
 35
-1.000000000000000E+20
146
0.0
 13
0.0
 23
0.0
 33
0.0
 16
1.0
 26
0.0
 36
0.0
 17
0.0
 27
1.0
 37
0.0
 76
     0
330
4DF
  0
MATERIAL
  5
48D
102
{ACAD_XDICTIONARY
360
48E
102
}
102
{ACAD_REACTORS
330
484
102
}
330
484
100
AcDbMaterial
  1
ByBlock
 72
     0
 43
0.0208333333333333
 43
0.0
 43
0.0
 43
0.0
 43
0.0
 43
0.0208333333333333
 43
0.0
 43
0.0
 43
0.0
 43
0.0
 43
1.0
 43
0.0
 43
0.0
 43
0.0
 43
0.0
 43
1.0
 77
     0
 47
0.0208333333333333
 47
0.0
 47
0.0
 47
0.0
 47
0.0
 47
0.0208333333333333
 47
0.0
 47
0.0
 47
0.0
 47
0.0
 47
1.0
 47
0.0
 47
0.0
 47
0.0
 47
0.0
 47
1.0
171
     0
 49
0.0208333333333333
 49
0.0
 49
0.0
 49
0.0
 49
0.0
 49
0.0208333333333333
 49
0.0
 49
0.0
 49
0.0
 49
0.0
 49
1.0
 49
0.0
 49
0.0
 49
0.0
 49
0.0
 49
1.0
175
     0
142
0.0208333333333333
142
0.0
142
0.0
142
0.0
142
0.0
142
0.0208333333333333
142
0.0
142
0.0
142
0.0
142
0.0
142
1.0
142
0.0
142
0.0
142
0.0
142
0.0
142
1.0
179
     0
144
0.0208333333333333
144
0.0
144
0.0
144
0.0
144
0.0
144
0.0208333333333333
144
0.0
144
0.0
144
0.0
144
0.0
144
1.0
144
0.0
144
0.0
144
0.0
144
0.0
144
1.0
147
0.0208333333333333
147
0.0
147
0.0
147
0.0
147
0.0
147
0.0208333333333333
147
0.0
147
0.0
147
0.0
147
0.0
147
1.0
147
0.0
147
0.0
147
0.0
147
0.0
147
1.0
  0
MATERIAL
  5
485
102
{ACAD_XDICTIONARY
360
486
102
}
102
{ACAD_REACTORS
330
484
102
}
330
484
100
AcDbMaterial
  1
ByLayer
 72
     0
 43
0.0208333333333333
 43
0.0
 43
0.0
 43
0.0
 43
0.0
 43
0.0208333333333333
 43
0.0
 43
0.0
 43
0.0
 43
0.0
 43
1.0
 43
0.0
 43
0.0
 43
0.0
 43
0.0
 43
1.0
 77
     0
 47
0.0208333333333333
 47
0.0
 47
0.0
 47
0.0
 47
0.0
 47
0.0208333333333333
 47
0.0
 47
0.0
 47
0.0
 47
0.0
 47
1.0
 47
0.0
 47
0.0
 47
0.0
 47
0.0
 47
1.0
171
     0
 49
0.0208333333333333
 49
0.0
 49
0.0
 49
0.0
 49
0.0
 49
0.0208333333333333
 49
0.0
 49
0.0
 49
0.0
 49
0.0
 49
1.0
 49
0.0
 49
0.0
 49
0.0
 49
0.0
 49
1.0
175
     0
142
0.0208333333333333
142
0.0
142
0.0
142
0.0
142
0.0
142
0.0208333333333333
142
0.0
142
0.0
142
0.0
142
0.0
142
1.0
142
0.0
142
0.0
142
0.0
142
0.0
142
1.0
179
     0
144
0.0208333333333333
144
0.0
144
0.0
144
0.0
144
0.0
144
0.0208333333333333
144
0.0
144
0.0
144
0.0
144
0.0
144
1.0
144
0.0
144
0.0
144
0.0
144
0.0
144
1.0
147
0.0208333333333333
147
0.0
147
0.0
147
0.0
147
0.0
147
0.0208333333333333
147
0.0
147
0.0
147
0.0
147
0.0
147
1.0
147
0.0
147
0.0
147
0.0
147
0.0
147
1.0
  0
MATERIAL
  5
495
102
{ACAD_XDICTIONARY
360
496
102
}
102
{ACAD_REACTORS
330
484
102
}
330
484
100
AcDbMaterial
  1
Global
 72
     0
 43
0.0208333333333333
 43
0.0
 43
0.0
 43
0.0
 43
0.0
 43
0.0208333333333333
 43
0.0
 43
0.0
 43
0.0
 43
0.0
 43
1.0
 43
0.0
 43
0.0
 43
0.0
 43
0.0
 43
1.0
 77
     0
 47
0.0208333333333333
 47
0.0
 47
0.0
 47
0.0
 47
0.0
 47
0.0208333333333333
 47
0.0
 47
0.0
 47
0.0
 47
0.0
 47
1.0
 47
0.0
 47
0.0
 47
0.0
 47
0.0
 47
1.0
171
     0
 49
0.0208333333333333
 49
0.0
 49
0.0
 49
0.0
 49
0.0
 49
0.0208333333333333
 49
0.0
 49
0.0
 49
0.0
 49
0.0
 49
1.0
 49
0.0
 49
0.0
 49
0.0
 49
0.0
 49
1.0
175
     0
142
0.0208333333333333
142
0.0
142
0.0
142
0.0
142
0.0
142
0.0208333333333333
142
0.0
142
0.0
142
0.0
142
0.0
142
1.0
142
0.0
142
0.0
142
0.0
142
0.0
142
1.0
179
     0
144
0.0208333333333333
144
0.0
144
0.0
144
0.0
144
0.0
144
0.0208333333333333
144
0.0
144
0.0
144
0.0
144
0.0
144
1.0
144
0.0
144
0.0
144
0.0
144
0.0
144
1.0
147
0.0208333333333333
147
0.0
147
0.0
147
0.0
147
0.0
147
0.0208333333333333
147
0.0
147
0.0
147
0.0
147
0.0
147
1.0
147
0.0
147
0.0
147
0.0
147
0.0
147
1.0
  0
MLEADERSTYLE
  5
4DA
102
{ACAD_REACTORS
330
4D9
102
}
330
4D9
100
AcDbMLeaderStyle
170
     2
171
     1
172
     0
 90
        2
 40
0.0
 41
0.0
173
     1
 91
-1056964608
340
4CE
 92
       -2
290
     1
 42
0.09
291
     1
 43
0.36
  3
Standard
 44
0.18
300

342
4C9
174
     1
178
     6
175
     1
176
     0
 93
-1056964608
 45
0.18
292
     0
297
     0
 46
0.18
 94
-1056964608
 47
1.0
 49
1.0
140
1.0
293
     1
141
0.0
294
     1
177
     0
142
1.0
295
     0
296
     0
143
0.125
1001
ACAD_MLEADERVER
1070
     2
  0
MLINESTYLE
  5
4D3
102
{ACAD_REACTORS
330
4D2
102
}
330
4D2
100
AcDbMlineStyle
  2
STANDARD
 70
     0
  3

 62
   256
 51
90.0
 52
90.0
 71
     2
 49
0.5
 62
   256
  6
BYLAYER
 49
-0.5
 62
   256
  6
BYLAYER
  0
ACDBPLACEHOLDER
  5
483
102
{ACAD_REACTORS
330
482
102
}
330
482
  0
SCALE
  5
4B7
102
{ACAD_REACTORS
330
4B6
102
}
330
4B6
100
AcDbScale
 70
     0
300
1:1
140
1.0
141
1.0
290
     1
  0
SCALE
  5
4B8
102
{ACAD_REACTORS
330
4B6
102
}
330
4B6
100
AcDbScale
 70
     0
300
1/128" = 1'-0"
140
0.0078125
141
12.0
290
     0
  0
SCALE
  5
4B9
102
{ACAD_REACTORS
330
4B6
102
}
330
4B6
100
AcDbScale
 70
     0
300
1/64" = 1'-0"
140
0.015625
141
12.0
290
     0
  0
SCALE
  5
4BA
102
{ACAD_REACTORS
330
4B6
102
}
330
4B6
100
AcDbScale
 70
     0
300
1/32" = 1'-0"
140
0.03125
141
12.0
290
     0
  0
SCALE
  5
4BB
102
{ACAD_REACTORS
330
4B6
102
}
330
4B6
100
AcDbScale
 70
     0
300
1/16" = 1'-0"
140
0.0625
141
12.0
290
     0
  0
SCALE
  5
4BC
102
{ACAD_REACTORS
330
4B6
102
}
330
4B6
100
AcDbScale
 70
     0
300
3/32" = 1'-0"
140
0.09375
141
12.0
290
     0
  0
SCALE
  5
4BD
102
{ACAD_REACTORS
330
4B6
102
}
330
4B6
100
AcDbScale
 70
     0
300
1/8" = 1'-0"
140
0.125
141
12.0
290
     0
  0
SCALE
  5
4BE
102
{ACAD_REACTORS
330
4B6
102
}
330
4B6
100
AcDbScale
 70
     0
300
3/16" = 1'-0"
140
0.1875
141
12.0
290
     0
  0
SCALE
  5
4BF
102
{ACAD_REACTORS
330
4B6
102
}
330
4B6
100
AcDbScale
 70
     0
300
1/4" = 1'-0"
140
0.25
141
12.0
290
     0
  0
SCALE
  5
4C0
102
{ACAD_REACTORS
330
4B6
102
}
330
4B6
100
AcDbScale
 70
     0
300
3/8" = 1'-0"
140
0.375
141
12.0
290
     0
  0
SCALE
  5
4C1
102
{ACAD_REACTORS
330
4B6
102
}
330
4B6
100
AcDbScale
 70
     0
300
1/2" = 1'-0"
140
0.5
141
12.0
290
     0
  0
SCALE
  5
4C2
102
{ACAD_REACTORS
330
4B6
102
}
330
4B6
100
AcDbScale
 70
     0
300
3/4" = 1'-0"
140
0.75
141
12.0
290
     0
  0
SCALE
  5
4C3
102
{ACAD_REACTORS
330
4B6
102
}
330
4B6
100
AcDbScale
 70
     0
300
1" = 1'-0"
140
1.0
141
12.0
290
     0
  0
SCALE
  5
4C4
102
{ACAD_REACTORS
330
4B6
102
}
330
4B6
100
AcDbScale
 70
     0
300
1-1/2" = 1'-0"
140
1.5
141
12.0
290
     0
  0
SCALE
  5
4C5
102
{ACAD_REACTORS
330
4B6
102
}
330
4B6
100
AcDbScale
 70
     0
300
3" = 1'-0"
140
3.0
141
12.0
290
     0
  0
SCALE
  5
4C6
102
{ACAD_REACTORS
330
4B6
102
}
330
4B6
100
AcDbScale
 70
     0
300
6" = 1'-0"
140
6.0
141
12.0
290
     0
  0
SCALE
  5
4C7
102
{ACAD_REACTORS
330
4B6
102
}
330
4B6
100
AcDbScale
 70
     0
300
1'-0" = 1'-0"
140
12.0
141
12.0
290
     0
  0
ACDBSECTIONVIEWSTYLE
  5
4DC
102
{ACAD_XDICTIONARY
360
54B
102
}
102
{ACAD_REACTORS
330
4DB
102
}
330
4DB
100
AcDbModelDocViewStyle
 70
     0
  3
Imperial24
290
     0
100
AcDbSectionViewStyle
 70
     0
 71
     0
 90
       78
 71
     1
340
4C9
 40
0.24
340
0
340
0
 40
0.24
300
I, O, Q, S, X, Z
 40
0.48
 90
        3
 40
0.18
 90
        1
 71
     2
340
4D0
 90
       25
340
4D0
 90
       50
 40
0.24
 40
0.0
 40
0.24
 71
     3
340
4C9
 40
0.24
 90
        1
 40
0.75
 90
        1
300
%<\AcVar ViewType \f "%tc1">% %<\AcVar ViewSectionStartId>%-%<\AcVar ViewSectionEndId>%\PSCALE %<\AcVar ViewScale \f "%sn">%
 71
     4
300
ANSI31
 40
1.0
 90
        0
290
     0
290
     0
 90
        6
 40
0.0
 40
1.570796326794896
 40
0.2617993877991494
 40
1.308996938995747
 40
-0.2617993877991494
 40
1.832595714594046
  0
TABLESTYLE
  5
4D8
102
{ACAD_XDICTIONARY
360
512
102
}
102
{ACAD_REACTORS
330
4D7
102
}
330
4D7
100
AcDbTableStyle
  3
Standard
 70
     0
 71
     0
 40
0.06
 41
0.06
280
     0
281
     0
  7
STANDARD
140
0.18
170
     2
 62
     0
 63
     7
283
     0
274
    -2
284
     1
 64
     0
275
    -2
285
     1
 65
     0
276
    -2
286
     1
 66
     0
277
    -2
287
     1
 67
     0
278
    -2
288
     1
 68
     0
279
    -2
289
     1
 69
     0
  7
STANDARD
140
0.25
170
     5
 62
     0
 63
     7
283
     0
274
    -2
284
     1
 64
     0
275
    -2
285
     1
 65
     0
276
    -2
286
     1
 66
     0
277
    -2
287
     1
 67
     0
278
    -2
288
     1
 68
     0
279
    -2
289
     1
 69
     0
  7
STANDARD
140
0.18
170
     5
 62
     0
 63
     7
283
     0
274
    -2
284
     1
 64
     0
275
    -2
285
     1
 65
     0
276
    -2
286
     1
 66
     0
277
    -2
287
     1
 67
     0
278
    -2
288
     1
 68
     0
279
    -2
289
     1
 69
     0
  0
VISUALSTYLE
  5
4A3
102
{ACAD_XDICTIONARY
360
523
102
}
102
{ACAD_REACTORS
330
49D
102
}
330
49D
100
AcDbVisualStyle
  2
2dWireframe
 70
     4
 71
     0
 72
     2
 73
     0
 90
        0
 40
-0.6
 41
-30.0
 62
     5
 63
     7
 74
     1
 91
        4
 64
     7
 65
   257
 75
     1
175
     1
 42
1.0
 92
        0
 66
   257
 43
1.0
 76
     1
 77
     6
 78
     2
 67
     7
 79
     5
170
     0
171
     0
290
     0
174
     0
 93
        1
 44
0.0
173
     0
291
     0
 45
0.0
1001
ACAD
1000
AcDbSavedByObjectVersion
1070
     0
  0
VISUALSTYLE
  5
4A2
102
{ACAD_XDICTIONARY
360
521
102
}
102
{ACAD_REACTORS
330
49D
102
}
330
49D
100
AcDbVisualStyle
  2
Basic
 70
     7
 71
     1
 72
     0
 73
     1
 90
        0
 40
-0.6
 41
-30.0
 62
     5
 63
     7
 74
     0
 91
        4
 64
     7
 65
   257
 75
     1
175
     1
 42
1.0
 92
        8
 66
     7
 43
1.0
 76
     1
 77
     6
 78
     2
 67
     7
 79
     5
170
     0
171
     0
290
     0
174
     0
 93
        1
 44
0.0
173
     0
291
     1
 45
0.0
1001
ACAD
1000
AcDbSavedByObjectVersion
1070
     0
  0
VISUALSTYLE
  5
4A9
102
{ACAD_XDICTIONARY
360
52F
102
}
102
{ACAD_REACTORS
330
49D
102
}
330
49D
100
AcDbVisualStyle
  2
Brighten
 70
    12
 71
     2
 72
     2
 73
     0
 90
        0
 40
-0.6
 41
-30.0
 62
     5
 63
     7
 74
     1
 91
        4
 64
     7
 65
   257
 75
     1
175
     1
 42
1.0
 92
        8
 66
     7
 43
1.0
 76
     1
 77
     6
 78
     2
 67
     7
 79
     5
170
     0
171
     0
290
     0
174
     0
 93
        1
 44
50.0
173
     0
291
     1
 45
0.0
1001
ACAD
1000
AcDbSavedByObjectVersion
1070
     0
  0
VISUALSTYLE
  5
4AD
102
{ACAD_XDICTIONARY
360
537
102
}
102
{ACAD_REACTORS
330
49D
102
}
330
49D
100
AcDbVisualStyle
  2
ColorChange
 70
    16
 71
     2
 72
     2
 73
     3
 90
        0
 40
-0.6
 41
-30.0
 62
     5
 63
     8
 74
     1
 91
        4
 64
     7
 65
   257
 75
     1
175
     1
 42
1.0
 92
        8
 66
     8
 43
1.0
 76
     1
 77
     6
 78
     2
 67
     7
 79
     5
170
     0
171
     0
290
     0
174
     0
 93
        1
 44
0.0
173
     0
291
     1
 45
0.0
1001
ACAD
1000
AcDbSavedByObjectVersion
1070
     0
  0
VISUALSTYLE
  5
4A6
102
{ACAD_XDICTIONARY
360
529
102
}
102
{ACAD_REACTORS
330
49D
102
}
330
49D
100
AcDbVisualStyle
  2
Conceptual
 70
     9
 71
     3
 72
     2
 73
     0
 90
        0
 40
-0.6
 41
-30.0
 62
     5
 63
     7
 74
     2
 91
        2
 64
     7
 65
   257
 75
     1
175
     1
 42
179.0
 92
        8
 66
     7
 43
1.0
 76
     1
 77
     6
 78
     2
 67
     7
 79
     3
170
     0
171
     0
290
     0
174
     0
 93
        1
 44
0.0
173
     0
291
     0
 45
0.0
1001
ACAD
1000
AcDbSavedByObjectVersion
1070
     0
  0
VISUALSTYLE
  5
4A8
102
{ACAD_XDICTIONARY
360
52D
102
}
102
{ACAD_REACTORS
330
49D
102
}
330
49D
100
AcDbVisualStyle
  2
Dim
 70
    11
 71
     2
 72
     2
 73
     0
 90
        0
 40
-0.6
 41
-30.0
 62
     5
 63
     7
 74
     1
 91
        4
 64
     7
 65
   257
 75
     1
175
     1
 42
1.0
 92
        8
 66
     7
 43
1.0
 76
     1
 77
     6
 78
     2
 67
     7
 79
     5
170
     0
171
     0
290
     0
174
     0
 93
        1
 44
-50.0
173
     0
291
     1
 45
0.0
1001
ACAD
1000
AcDbSavedByObjectVersion
1070
     0
  0
VISUALSTYLE
  5
4B5
102
{ACAD_XDICTIONARY
360
547
102
}
102
{ACAD_REACTORS
330
49D
102
}
330
49D
100
AcDbVisualStyle
  2
EdgeColorOff
 70
    22
 71
     2
 72
     2
 73
     0
 90
        0
 40
-0.6
 41
-30.0
 62
     5
 63
     7
 74
     1
 91
        4
 64
     7
 65
   257
 75
     1
175
     1
 42
1.0
 92
        8
 66
     7
 43
1.0
 76
     1
 77
     6
 78
     2
 67
     7
 79
     5
170
     0
171
     0
290
     0
174
     0
 93
        1
 44
0.0
173
     0
291
     1
 45
0.0
1001
ACAD
1000
AcDbSavedByObjectVersion
1070
     0
  0
VISUALSTYLE
  5
4AC
102
{ACAD_XDICTIONARY
360
535
102
}
102
{ACAD_REACTORS
330
49D
102
}
330
49D
100
AcDbVisualStyle
  2
Facepattern
 70
    15
 71
     2
 72
     2
 73
     0
 90
        0
 40
-0.6
 41
-30.0
 62
     5
 63
     7
 74
     1
 91
        4
 64
     7
 65
   257
 75
     1
175
     1
 42
1.0
 92
        8
 66
     7
 43
1.0
 76
     1
 77
     6
 78
     2
 67
     7
 79
     5
170
     0
171
     0
290
     0
174
     0
 93
        1
 44
0.0
173
     0
291
     1
 45
0.0
1001
ACAD
1000
AcDbSavedByObjectVersion
1070
     0
  0
VISUALSTYLE
  5
49E
102
{ACAD_XDICTIONARY
360
519
102
}
102
{ACAD_REACTORS
330
49D
102
}
330
49D
100
AcDbVisualStyle
  2
Flat
 70
     0
 71
     2
 72
     1
 73
     1
 90
        2
 40
-0.6
 41
30.0
 62
     5
 63
     7
 74
     0
 91
        0
 64
     7
 65
   257
 75
     1
175
     1
 42
1.0
 92
        8
 66
     7
 43
1.0
 76
     1
 77
     6
 78
     2
 67
     7
 79
     5
170
     0
171
     0
290
     0
174
     0
 93
       13
 44
0.0
173
     0
291
     1
 45
0.0
1001
ACAD
1000
AcDbSavedByObjectVersion
1070
     0
  0
VISUALSTYLE
  5
49F
102
{ACAD_XDICTIONARY
360
51B
102
}
102
{ACAD_REACTORS
330
49D
102
}
330
49D
100
AcDbVisualStyle
  2
FlatWithEdges
 70
     1
 71
     2
 72
     1
 73
     1
 90
        2
 40
-0.6
 41
30.0
 62
     5
 63
     7
 74
     1
 91
        0
 64
     7
 65
   257
 75
     1
175
     1
 42
1.0
 92
        0
 66
   257
 43
1.0
 76
     1
 77
     6
 78
     2
 67
     7
 79
     5
170
     0
171
     0
290
     0
174
     0
 93
       13
 44
0.0
173
     0
291
     1
 45
0.0
1001
ACAD
1000
AcDbSavedByObjectVersion
1070
     0
  0
VISUALSTYLE
  5
4A0
102
{ACAD_XDICTIONARY
360
51D
102
}
102
{ACAD_REACTORS
330
49D
102
}
330
49D
100
AcDbVisualStyle
  2
Gouraud
 70
     2
 71
     2
 72
     2
 73
     1
 90
        2
 40
-0.6
 41
30.0
 62
     5
 63
     7
 74
     0
 91
        0
 64
     7
 65
   257
 75
     1
175
     1
 42
1.0
 92
        0
 66
     7
 43
1.0
 76
     1
 77
     6
 78
     2
 67
     7
 79
     5
170
     0
171
     0
290
     0
174
     0
 93
       13
 44
0.0
173
     0
291
     1
 45
0.0
1001
ACAD
1000
AcDbSavedByObjectVersion
1070
     0
  0
VISUALSTYLE
  5
4A1
102
{ACAD_XDICTIONARY
360
51F
102
}
102
{ACAD_REACTORS
330
49D
102
}
330
49D
100
AcDbVisualStyle
  2
GouraudWithEdges
 70
     3
 71
     2
 72
     2
 73
     1
 90
        2
 40
-0.6
 41
30.0
 62
     5
 63
     7
 74
     1
 91
        0
 64
     7
 65
   257
 75
     1
175
     1
 42
1.0
 92
        0
 66
   257
 43
1.0
 76
     1
 77
     6
 78
     2
 67
     7
 79
     5
170
     0
171
     0
290
     0
174
     0
 93
       13
 44
0.0
173
     0
291
     1
 45
0.0
1001
ACAD
1000
AcDbSavedByObjectVersion
1070
     0
  0
VISUALSTYLE
  5
4A5
102
{ACAD_XDICTIONARY
360
527
102
}
102
{ACAD_REACTORS
330
49D
102
}
330
49D
100
AcDbVisualStyle
  2
Hidden
 70
     6
 71
     1
 72
     2
 73
     2
 90
        0
 40
-0.6
 41
-30.0
 62
     5
 63
     7
 74
     2
 91
        2
 64
     7
 65
   257
 75
     2
175
     1
 42
40.0
 92
        0
 66
   257
 43
1.0
 76
     1
 77
     6
 78
     2
 67
     7
 79
     3
170
     0
171
     0
290
     0
174
     0
 93
        1
 44
0.0
173
     0
291
     0
 45
0.0
1001
ACAD
1000
AcDbSavedByObjectVersion
1070
     0
  0
VISUALSTYLE
  5
4B3
102
{ACAD_XDICTIONARY
360
543
102
}
102
{ACAD_REACTORS
330
49D
102
}
330
49D
100
AcDbVisualStyle
  2
JitterOff
 70
    20
 71
     2
 72
     2
 73
     0
 90
        0
 40
-0.6
 41
-30.0
 62
     5
 63
     7
 74
     1
 91
        4
 64
     7
 65
   257
 75
     1
175
     1
 42
1.0
 92
       10
 66
     7
 43
1.0
 76
     1
 77
     6
 78
     2
 67
     7
 79
     5
170
     0
171
     0
290
     0
174
     0
 93
        1
 44
0.0
173
     0
291
     1
 45
0.0
1001
ACAD
1000
AcDbSavedByObjectVersion
1070
     0
  0
VISUALSTYLE
  5
4AB
102
{ACAD_XDICTIONARY
360
533
102
}
102
{ACAD_REACTORS
330
49D
102
}
330
49D
100
AcDbVisualStyle
  2
Linepattern
 70
    14
 71
     2
 72
     2
 73
     0
 90
        0
 40
-0.6
 41
-30.0
 62
     5
 63
     7
 74
     1
 91
        4
 64
     7
 65
   257
 75
     7
175
     7
 42
1.0
 92
        8
 66
     7
 43
1.0
 76
     1
 77
     6
 78
     2
 67
     7
 79
     5
170
     0
171
     0
290
     0
174
     0
 93
        1
 44
0.0
173
     0
291
     1
 45
0.0
1001
ACAD
1000
AcDbSavedByObjectVersion
1070
     0
  0
VISUALSTYLE
  5
4B4
102
{ACAD_XDICTIONARY
360
545
102
}
102
{ACAD_REACTORS
330
49D
102
}
330
49D
100
AcDbVisualStyle
  2
OverhangOff
 70
    21
 71
     2
 72
     2
 73
     0
 90
        0
 40
-0.6
 41
-30.0
 62
     5
 63
     7
 74
     1
 91
        4
 64
     7
 65
   257
 75
     1
175
     1
 42
1.0
 92
        9
 66
     7
 43
1.0
 76
     1
 77
     6
 78
     2
 67
     7
 79
     5
170
     0
171
     0
290
     0
174
     0
 93
        1
 44
0.0
173
     0
291
     1
 45
0.0
1001
ACAD
1000
AcDbSavedByObjectVersion
1070
     0
  0
VISUALSTYLE
  5
4A7
102
{ACAD_XDICTIONARY
360
52B
102
}
102
{ACAD_REACTORS
330
49D
102
}
330
49D
100
AcDbVisualStyle
  2
Realistic
 70
     8
 71
     2
 72
     3
 73
     0
 90
        2
 40
-0.6
 41
30.0
 62
     5
 63
     7
 74
     0
 91
        0
 64
     7
 65
   257
 75
     1
175
     1
 42
1.0
 92
        8
 66
   257
 43
1.0
 76
     1
 77
     6
 78
     2
 67
     7
 79
     3
170
     0
171
     0
290
     0
174
     0
 93
       13
 44
0.0
173
     0
291
     0
 45
0.0
1001
ACAD
1000
AcDbSavedByObjectVersion
1070
     0
  0
VISUALSTYLE
  5
4B2
102
{ACAD_XDICTIONARY
360
541
102
}
102
{ACAD_REACTORS
330
49D
102
}
330
49D
100
AcDbVisualStyle
  2
Shaded
 70
    27
 71
     2
 72
     2
 73
     1
 90
        2
 40
-0.6
 41
30.0
 62
     5
 63
     7
 74
     0
 91
        4
 64
     7
 65
   257
 75
     1
175
     1
 42
1.0
 92
        8
 66
   257
 43
1.0
 76
     1
 77
     6
 78
     2
 67
     8
 79
     3
170
     0
171
     0
290
     0
174
     0
 93
        5
 44
0.0
173
     0
291
     0
 45
0.0
1001
ACAD
1000
AcDbSavedByObjectVersion
1070
     0
  0
VISUALSTYLE
  5
4B1
102
{ACAD_XDICTIONARY
360
53F
102
}
102
{ACAD_REACTORS
330
49D
102
}
330
49D
100
AcDbVisualStyle
  2
Shaded with edges
 70
    26
 71
     2
 72
     2
 73
     1
 90
        2
 40
-0.6
 41
30.0
 62
     5
 63
     7
 74
     1
 91
        2
 64
     7
 65
   257
 75
     2
175
     1
 42
1.0
 92
        8
 66
   257
 43
1.0
 76
     1
 77
     6
 78
     2
 67
     7
 79
     3
170
     0
171
     0
290
     0
174
     0
 93
        5
 44
0.0
173
     0
291
     0
 45
0.0
1001
ACAD
1000
AcDbSavedByObjectVersion
1070
     0
  0
VISUALSTYLE
  5
4AE
102
{ACAD_XDICTIONARY
360
539
102
}
102
{ACAD_REACTORS
330
49D
102
}
330
49D
100
AcDbVisualStyle
  2
Shades of Gray
 70
    23
 71
     2
 72
     2
 73
     3
 90
        0
 40
-0.6
 41
-30.0
 62
     5
 63
     7
 74
     2
 91
        2
 64
     7
 65
     7
 75
     1
175
     1
 42
40.0
 92
        8
 66
     7
 43
1.0
 76
     1
 77
     6
 78
     2
 67
     7
 79
     3
170
     0
171
     0
290
     0
174
     0
 93
        1
 44
0.0
173
     0
291
     0
 45
0.0
1001
ACAD
1000
AcDbSavedByObjectVersion
1070
     0
  0
VISUALSTYLE
  5
4AF
102
{ACAD_XDICTIONARY
360
53B
102
}
102
{ACAD_REACTORS
330
49D
102
}
330
49D
100
AcDbVisualStyle
  2
Sketchy
 70
    24
 71
     1
 72
     2
 73
     2
 90
        0
 40
-0.6
 41
-30.0
 62
     5
 63
     7
 74
     2
 91
        2
 64
     7
 65
     7
 75
     1
175
     1
 42
40.0
 92
       11
 66
     7
 43
1.0
 76
     1
 77
     6
 78
     2
 67
     7
 79
     6
170
     0
171
     0
290
     0
174
     0
 93
        1
 44
0.0
173
     0
291
     0
 45
0.0
1001
ACAD
1000
AcDbSavedByObjectVersion
1070
     0
  0
VISUALSTYLE
  5
4AA
102
{ACAD_XDICTIONARY
360
531
102
}
102
{ACAD_REACTORS
330
49D
102
}
330
49D
100
AcDbVisualStyle
  2
Thicken
 70
    13
 71
     2
 72
     2
 73
     0
 90
        0
 40
-0.6
 41
-30.0
 62
     5
 63
     7
 74
     1
 91
        4
 64
     7
 65
   257
 75
     1
175
     1
 42
1.0
 92
       12
 66
     7
 43
1.0
 76
     1
 77
     6
 78
     2
 67
     7
 79
     5
170
     0
171
     0
290
     0
174
     0
 93
        1
 44
0.0
173
     0
291
     1
 45
0.0
1001
ACAD
1000
AcDbSavedByObjectVersion
1070
     0
  0
VISUALSTYLE
  5
4A4
102
{ACAD_XDICTIONARY
360
525
102
}
102
{ACAD_REACTORS
330
49D
102
}
330
49D
100
AcDbVisualStyle
  2
Wireframe
 70
     5
 71
     0
 72
     2
 73
     0
 90
        0
 40
-0.6
 41
-30.0
 62
     5
 63
     7
 74
     1
 91
        4
 64
     7
 65
   257
 75
     1
175
     1
 42
1.0
 92
        0
 66
   257
 43
1.0
 76
     1
 77
     6
 78
     2
 67
     7
 79
     3
170
     0
171
     0
290
     0
174
     0
 93
        1
 44
0.0
173
     0
291
     0
 45
0.0
1001
ACAD
1000
AcDbSavedByObjectVersion
1070
     0
  0
VISUALSTYLE
  5
4B0
102
{ACAD_XDICTIONARY
360
53D
102
}
102
{ACAD_REACTORS
330
49D
102
}
330
49D
100
AcDbVisualStyle
  2
X-Ray
 70
    25
 71
     2
 72
     2
 73
     1
 90
        1
 40
0.5
 41
-30.0
 62
     5
 63
     7
 74
     1
 91
        0
 64
     7
 65
   257
 75
     1
175
     1
 42
1.0
 92
        8
 66
     7
 43
1.0
 76
     1
 77
     6
 78
     2
 67
     7
 79
     3
170
     0
171
     0
290
     0
174
     0
 93
       13
 44
0.0
173
     0
291
     0
 45
0.0
1001
ACAD
1000
AcDbSavedByObjectVersion
1070
     0
  0
DICTIONARYVAR
  5
50C
102
{ACAD_REACTORS
330
507
102
}
330
507
100
DictionaryVariables
280
     0
  1
1:1
  0
DICTIONARYVAR
  5
509
102
{ACAD_REACTORS
330
507
102
}
330
507
100
DictionaryVariables
280
     0
  1
STANDARD
  0
DICTIONARYVAR
  5
508
102
{ACAD_REACTORS
330
507
102
}
330
507
100
DictionaryVariables
280
     0
  1
STANDARD
  0
DICTIONARYVAR
  5
50A
102
{ACAD_REACTORS
330
507
102
}
330
507
100
DictionaryVariables
280
     0
  1
Imperial24
  0
DICTIONARYVAR
  5
50B
102
{ACAD_REACTORS
330
507
102
}
330
507
100
DictionaryVariables
280
     0
  1
Imperial24
  0
DICTIONARYVAR
  5
50F
102
{ACAD_REACTORS
330
507
102
}
330
507
100
DictionaryVariables
280
     0
  1
1
  0
DICTIONARYVAR
  5
50E
102
{ACAD_REACTORS
330
507
102
}
330
507
100
DictionaryVariables
280
     0
  1
0
  0
DICTIONARYVAR
  5
50D
102
{ACAD_REACTORS
330
507
102
}
330
507
100
DictionaryVariables
280
     0
  1
127
  0
DICTIONARYVAR
  5
510
102
{ACAD_REACTORS
330
507
102
}
330
507
100
DictionaryVariables
280
     0
  1
2
  0
DICTIONARY
  5
54D
330
4DE
100
AcDbDictionary
280
     1
281
     1
  3
ACAD_XREC_ROUNDTRIP
360
54E
  0
DICTIONARY
  5
551
330
4E6
100
AcDbDictionary
280
     1
281
     1
  3
ACAD_XREC_ROUNDTRIP
360
552
  0
DICTIONARY
  5
54F
330
4E2
100
AcDbDictionary
280
     1
281
     1
  3
ACAD_XREC_ROUNDTRIP
360
550
  0
DICTIONARY
  5
48E
330
48D
100
AcDbDictionary
280
     1
281
     1
  3
ACAD_XREC_ROUNDTRIP
360
517
  3
BUMPTILE
360
490
  3
DIFFUSETILE
360
48F
  3
OPACITYTILE
360
493
  3
REFLECTIONTILE
360
492
  3
REFRACTIONTILE
360
494
  3
SPECULARTILE
360
491
  0
DICTIONARY
  5
486
330
485
100
AcDbDictionary
280
     1
281
     1
  3
ACAD_XREC_ROUNDTRIP
360
516
  3
BUMPTILE
360
488
  3
DIFFUSETILE
360
487
  3
OPACITYTILE
360
48B
  3
REFLECTIONTILE
360
48A
  3
REFRACTIONTILE
360
48C
  3
SPECULARTILE
360
489
  0
DICTIONARY
  5
496
330
495
100
AcDbDictionary
280
     1
281
     1
  3
ACAD_XREC_ROUNDTRIP
360
518
  3
BUMPTILE
360
498
  3
DIFFUSETILE
360
497
  3
OPACITYTILE
360
49B
  3
REFLECTIONTILE
360
49A
  3
REFRACTIONTILE
360
49C
  3
SPECULARTILE
360
499
  0
DICTIONARY
  5
54B
330
4DC
100
AcDbDictionary
280
     1
281
     1
  3
ACAD_XREC_ROUNDTRIP
360
54C
  0
DICTIONARY
  5
512
330
4D8
100
AcDbDictionary
280
     1
281
     1
  3
ACAD_ROUNDTRIP_2008_TABLESTYLE_CELLSTYLEMAP
360
513
  3
ACAD_XREC_ROUNDTRIP
360
549
  0
DICTIONARY
  5
523
330
4A3
100
AcDbDictionary
280
     1
281
     1
  3
ACAD_XREC_ROUNDTRIP
360
524
  0
DICTIONARY
  5
521
330
4A2
100
AcDbDictionary
280
     1
281
     1
  3
ACAD_XREC_ROUNDTRIP
360
522
  0
DICTIONARY
  5
52F
330
4A9
100
AcDbDictionary
280
     1
281
     1
  3
ACAD_XREC_ROUNDTRIP
360
530
  0
DICTIONARY
  5
537
330
4AD
100
AcDbDictionary
280
     1
281
     1
  3
ACAD_XREC_ROUNDTRIP
360
538
  0
DICTIONARY
  5
529
330
4A6
100
AcDbDictionary
280
     1
281
     1
  3
ACAD_XREC_ROUNDTRIP
360
52A
  0
DICTIONARY
  5
52D
330
4A8
100
AcDbDictionary
280
     1
281
     1
  3
ACAD_XREC_ROUNDTRIP
360
52E
  0
DICTIONARY
  5
547
330
4B5
100
AcDbDictionary
280
     1
281
     1
  3
ACAD_XREC_ROUNDTRIP
360
548
  0
DICTIONARY
  5
535
330
4AC
100
AcDbDictionary
280
     1
281
     1
  3
ACAD_XREC_ROUNDTRIP
360
536
  0
DICTIONARY
  5
519
330
49E
100
AcDbDictionary
280
     1
281
     1
  3
ACAD_XREC_ROUNDTRIP
360
51A
  0
DICTIONARY
  5
51B
330
49F
100
AcDbDictionary
280
     1
281
     1
  3
ACAD_XREC_ROUNDTRIP
360
51C
  0
DICTIONARY
  5
51D
330
4A0
100
AcDbDictionary
280
     1
281
     1
  3
ACAD_XREC_ROUNDTRIP
360
51E
  0
DICTIONARY
  5
51F
330
4A1
100
AcDbDictionary
280
     1
281
     1
  3
ACAD_XREC_ROUNDTRIP
360
520
  0
DICTIONARY
  5
527
330
4A5
100
AcDbDictionary
280
     1
281
     1
  3
ACAD_XREC_ROUNDTRIP
360
528
  0
DICTIONARY
  5
543
330
4B3
100
AcDbDictionary
280
     1
281
     1
  3
ACAD_XREC_ROUNDTRIP
360
544
  0
DICTIONARY
  5
533
330
4AB
100
AcDbDictionary
280
     1
281
     1
  3
ACAD_XREC_ROUNDTRIP
360
534
  0
DICTIONARY
  5
545
330
4B4
100
AcDbDictionary
280
     1
281
     1
  3
ACAD_XREC_ROUNDTRIP
360
546
  0
DICTIONARY
  5
52B
330
4A7
100
AcDbDictionary
280
     1
281
     1
  3
ACAD_XREC_ROUNDTRIP
360
52C
  0
DICTIONARY
  5
541
330
4B2
100
AcDbDictionary
280
     1
281
     1
  3
ACAD_XREC_ROUNDTRIP
360
542
  0
DICTIONARY
  5
53F
330
4B1
100
AcDbDictionary
280
     1
281
     1
  3
ACAD_XREC_ROUNDTRIP
360
540
  0
DICTIONARY
  5
539
330
4AE
100
AcDbDictionary
280
     1
281
     1
  3
ACAD_XREC_ROUNDTRIP
360
53A
  0
DICTIONARY
  5
53B
330
4AF
100
AcDbDictionary
280
     1
281
     1
  3
ACAD_XREC_ROUNDTRIP
360
53C
  0
DICTIONARY
  5
531
330
4AA
100
AcDbDictionary
280
     1
281
     1
  3
ACAD_XREC_ROUNDTRIP
360
532
  0
DICTIONARY
  5
525
330
4A4
100
AcDbDictionary
280
     1
281
     1
  3
ACAD_XREC_ROUNDTRIP
360
526
  0
DICTIONARY
  5
53D
330
4B0
100
AcDbDictionary
280
     1
281
     1
  3
ACAD_XREC_ROUNDTRIP
360
53E
  0
XRECORD
  5
54E
102
{ACAD_REACTORS
330
54D
102
}
330
54D
100
AcDbXrecord
280
     1
102
DISPLAYNAME
  1
Imperial24
102
FLAGS
 90
        0
  0
XRECORD
  5
552
102
{ACAD_REACTORS
330
551
102
}
330
551
100
AcDbXrecord
280
     1
102
SHADEPLOT
 70
     0
102
SHADEPLOTRESLEVEL
 70
     2
102
SHADEPLOTCUSTOMDPI
 70
   300
  0
XRECORD
  5
550
102
{ACAD_REACTORS
330
54F
102
}
330
54F
100
AcDbXrecord
280
     1
102
SHADEPLOT
 70
     0
102
SHADEPLOTRESLEVEL
 70
     2
102
SHADEPLOTCUSTOMDPI
 70
   300
  0
XRECORD
  5
517
102
{ACAD_REACTORS
330
48E
102
}
330
48E
100
AcDbXrecord
280
     1
102
MATERIAL
148
0.0
149
0.0
149
0.0
 93
        0
 94
      127
282
     0
 72
     0
 77
     0
171
     0
175
     0
179
     0
273
     0
  0
XRECORD
  5
490
102
{ACAD_REACTORS
330
48E
102
}
330
48E
100
AcDbXrecord
280
     1
270
     1
271
     1
  0
XRECORD
  5
48F
102
{ACAD_REACTORS
330
48E
102
}
330
48E
100
AcDbXrecord
280
     1
270
     1
271
     1
  0
XRECORD
  5
493
102
{ACAD_REACTORS
330
48E
102
}
330
48E
100
AcDbXrecord
280
     1
270
     1
271
     1
  0
XRECORD
  5
492
102
{ACAD_REACTORS
330
48E
102
}
330
48E
100
AcDbXrecord
280
     1
270
     1
271
     1
  0
XRECORD
  5
494
102
{ACAD_REACTORS
330
48E
102
}
330
48E
100
AcDbXrecord
280
     1
270
     1
271
     1
  0
XRECORD
  5
491
102
{ACAD_REACTORS
330
48E
102
}
330
48E
100
AcDbXrecord
280
     1
270
     1
271
     1
  0
XRECORD
  5
516
102
{ACAD_REACTORS
330
486
102
}
330
486
100
AcDbXrecord
280
     1
102
MATERIAL
148
0.0
149
0.0
149
0.0
 93
        0
 94
      127
282
     0
 72
     0
 77
     0
171
     0
175
     0
179
     0
273
     0
  0
XRECORD
  5
488
102
{ACAD_REACTORS
330
486
102
}
330
486
100
AcDbXrecord
280
     1
270
     1
271
     1
  0
XRECORD
  5
487
102
{ACAD_REACTORS
330
486
102
}
330
486
100
AcDbXrecord
280
     1
270
     1
271
     1
  0
XRECORD
  5
48B
102
{ACAD_REACTORS
330
486
102
}
330
486
100
AcDbXrecord
280
     1
270
     1
271
     1
  0
XRECORD
  5
48A
102
{ACAD_REACTORS
330
486
102
}
330
486
100
AcDbXrecord
280
     1
270
     1
271
     1
  0
XRECORD
  5
48C
102
{ACAD_REACTORS
330
486
102
}
330
486
100
AcDbXrecord
280
     1
270
     1
271
     1
  0
XRECORD
  5
489
102
{ACAD_REACTORS
330
486
102
}
330
486
100
AcDbXrecord
280
     1
270
     1
271
     1
  0
XRECORD
  5
518
102
{ACAD_REACTORS
330
496
102
}
330
496
100
AcDbXrecord
280
     1
102
MATERIAL
148
0.0
149
0.0
149
0.0
 93
        0
 94
      127
282
     0
 72
     0
 77
     0
171
     0
175
     0
179
     0
273
     0
  0
XRECORD
  5
498
102
{ACAD_REACTORS
330
496
102
}
330
496
100
AcDbXrecord
280
     1
270
     1
271
     1
  0
XRECORD
  5
497
102
{ACAD_REACTORS
330
496
102
}
330
496
100
AcDbXrecord
280
     1
270
     1
271
     1
  0
XRECORD
  5
49B
102
{ACAD_REACTORS
330
496
102
}
330
496
100
AcDbXrecord
280
     1
270
     1
271
     1
  0
XRECORD
  5
49A
102
{ACAD_REACTORS
330
496
102
}
330
496
100
AcDbXrecord
280
     1
270
     1
271
     1
  0
XRECORD
  5
49C
102
{ACAD_REACTORS
330
496
102
}
330
496
100
AcDbXrecord
280
     1
270
     1
271
     1
  0
XRECORD
  5
499
102
{ACAD_REACTORS
330
496
102
}
330
496
100
AcDbXrecord
280
     1
270
     1
271
     1
  0
XRECORD
  5
54C
102
{ACAD_REACTORS
330
54B
102
}
330
54B
100
AcDbXrecord
280
     1
102
DISPLAYNAME
  1
Imperial24
102
FLAGS
 90
        0
  0
CELLSTYLEMAP
  5
513
102
{ACAD_REACTORS
330
512
102
}
330
512
100
AcDbCellStyleMap
 90
        3
300
CELLSTYLE
  1
TABLEFORMAT_BEGIN
 90
        5
170
     1
 91
        0
 92
    32768
 62
   257
 93
        1
300
CONTENTFORMAT
  1
CONTENTFORMAT_BEGIN
 90
        0
 91
        0
 92
      512
 93
        0
300

 40
0.0
140
1.0
 94
        5
 62
     0
340
4C9
144
0.25
309
CONTENTFORMAT_END
171
     0
 94
        0
309
TABLEFORMAT_END
  1
CELLSTYLE_BEGIN
 90
        1
 91
        1
300
_TITLE
309
CELLSTYLE_END
300
CELLSTYLE
  1
TABLEFORMAT_BEGIN
 90
        5
170
     1
 91
        0
 92
        0
 62
   257
 93
        1
300
CONTENTFORMAT
  1
CONTENTFORMAT_BEGIN
 90
        0
 91
        0
 92
      512
 93
        0
300

 40
0.0
140
1.0
 94
        5
 62
     0
340
4C9
144
0.18
309
CONTENTFORMAT_END
171
     0
 94
        0
309
TABLEFORMAT_END
  1
CELLSTYLE_BEGIN
 90
        2
 91
        1
300
_HEADER
309
CELLSTYLE_END
300
CELLSTYLE
  1
TABLEFORMAT_BEGIN
 90
        5
170
     1
 91
        0
 92
        0
 62
   257
 93
        1
300
CONTENTFORMAT
  1
CONTENTFORMAT_BEGIN
 90
        0
 91
        0
 92
      512
 93
        0
300

 40
0.0
140
1.0
 94
        2
 62
     0
340
4C9
144
0.18
309
CONTENTFORMAT_END
171
     0
 94
        0
309
TABLEFORMAT_END
  1
CELLSTYLE_BEGIN
 90
        3
 91
        2
300
_DATA
309
CELLSTYLE_END
  0
XRECORD
  5
549
102
{ACAD_REACTORS
330
512
102
}
330
512
100
AcDbXrecord
280
     1
102
ACAD_ROUNDTRIP_PRE2007_TABLESTYLE
 90
      512
 91
        0
  1

 92
      512
 93
        0
  2

 94
      512
 95
        0
  3

  0
XRECORD
  5
524
102
{ACAD_REACTORS
330
523
102
}
330
523
100
AcDbXrecord
280
     1
102
RTVSPost2010Prop28
280
     1
102
RTVSPost2010PropOp28
 70
     1
102
RTVSPost2010Prop29
280
     1
102
RTVSPost2010PropOp29
 70
     1
102
RTVSPost2010Prop30
280
     0
102
RTVSPost2010PropOp30
 70
     1
102
RTVSPost2010Prop31
280
     0
102
RTVSPost2010PropOp31
 70
     1
102
RTVSPost2010Prop32
280
     0
102
RTVSPost2010PropOp32
 70
     1
102
RTVSPost2010Prop33
280
     0
102
RTVSPost2010PropOp33
 70
     1
102
RTVSPost2010Prop34
280
     0
102
RTVSPost2010PropOp34
 70
     1
102
RTVSPost2010Prop35
280
     0
102
RTVSPost2010PropOp35
 70
     1
102
RTVSPost2010Prop36
280
     0
102
RTVSPost2010PropOp36
 70
     1
102
RTVSPost2010Prop37
 90
       50
102
RTVSPost2010PropOp37
 70
     1
102
RTVSPost2010Prop38
140
0.0
102
RTVSPost2010PropOp38
 70
     1
102
RTVSPost2010Prop39
140
1.0
102
RTVSPost2010PropOp39
 70
     1
102
RTVSPost2010Prop40
 90
        0
102
RTVSPost2010PropOp40
 70
     1
102
RTVSPost2010Prop41ColorIndex
 90
       18
102
RTVSPost2010Prop41ColorRGB
 90
        0
102
RTVSPost2010PropOp41
 70
     1
102
RTVSPost2010Prop42
 90
       50
102
RTVSPost2010PropOp42
 70
     1
102
RTVSPost2010Prop43
 90
        3
102
RTVSPost2010PropOp43
 70
     1
102
RTVSPost2010Prop44ColorIndex
 90
        5
102
RTVSPost2010Prop44ColorRGB
 90
      255
102
RTVSPost2010PropOp44
 70
     1
102
RTVSPost2010Prop45
280
     0
102
RTVSPost2010PropOp45
 70
     1
102
RTVSPost2010Prop46
 90
       50
102
RTVSPost2010PropOp46
 70
     1
102
RTVSPost2010Prop47
 90
       50
102
RTVSPost2010PropOp47
 70
     1
102
RTVSPost2010Prop48
 90
       50
102
RTVSPost2010PropOp48
 70
     1
102
RTVSPost2010Prop49
280
     0
102
RTVSPost2010PropOp49
 70
     1
102
RTVSPost2010Prop50
 90
       50
102
RTVSPost2010PropOp50
 70
     1
102
RTVSPost2010Prop51ColorIndex
 90
      256
102
RTVSPost2010Prop51ColorRGB
 90
-16777216
102
RTVSPost2010PropOp51
 70
     0
102
RTVSPost2010Prop52
140
1.0
102
RTVSPost2010PropOp52
 70
     0
102
RTVSPost2010Prop53
 90
        2
102
RTVSPost2010PropOp53
 70
     1
102
RTVSPost2010Prop54
  1
strokes_ogs.tif
102
RTVSPost2010PropOp54
 70
     1
102
RTVSPost2010Prop55
280
     0
102
RTVSPost2010PropOp55
 70
     1
102
RTVSPost2010Prop56
140
1.0
102
RTVSPost2010PropOp56
 70
     1
102
RTVSPost2010Prop57
140
1.0
102
RTVSPost2010PropOp57
 70
     1
102
RTVSPropertyOp0
 70
     1
102
RTVSPropertyOp1
 70
     1
102
RTVSPropertyOp2
 70
     1
102
RTVSPropertyOp3
 70
     1
102
RTVSPropertyOp4
 70
     1
102
RTVSPropertyOp5
 70
     1
102
RTVSPropertyOp6
 70
     1
102
RTVSPropertyOp7
 70
     1
102
RTVSPropertyOp8
 70
     1
102
RTVSPropertyOp9
 70
     1
102
RTVSPropertyOp10
 70
     1
102
RTVSPropertyOp11
 70
     1
102
RTVSPropertyOp12
 70
     1
102
RTVSPropertyOp13
 70
     1
102
RTVSPropertyOp14
 70
     1
102
RTVSPropertyOp15
 70
     1
102
RTVSPropertyOp16
 70
     1
102
RTVSPropertyOp17
 70
     1
102
RTVSPropertyOp18
 70
     1
102
RTVSPropertyOp19
 70
     1
102
RTVSPropertyOp20
 70
     1
102
RTVSPropertyOp21
 70
     1
102
RTVSPropertyOp22
 70
     1
102
RTVSPropertyOp23
 70
     1
102
RTVSPropertyOp24
 70
     1
102
RTVSPropertyOp25
 70
     1
102
RTVSPropertyOp26
 70
     1
102
RTVSPropertyOp27
 70
     1
102
RTVSPropertyOp28
 70
     1
102
RTVSPropertyOp29
 70
     1
102
RTVSPropertyOp30
 70
     1
102
RTVSPropertyOp31
 70
     1
102
RTVSPropertyOp32
 70
     1
102
RTVSPropertyOp33
 70
     1
102
RTVSPropertyOp34
 70
     1
102
RTVSPropertyOp35
 70
     1
102
RTVSPropertyOp36
 70
     1
102
RTVSPropertyOp37
 70
     1
102
RTVSPropertyOp38
 70
     1
102
RTVSPropertyOp39
 70
     1
102
RTVSPropertyOp40
 70
     1
102
RTVSPropertyOp41
 70
     1
102
RTVSPropertyOp42
 70
     1
102
RTVSPropertyOp43
 70
     1
102
RTVSPropertyOp44
 70
     1
102
RTVSPropertyOp45
 70
     1
102
RTVSPropertyOp46
 70
     1
102
RTVSPropertyOp47
 70
     1
102
RTVSPropertyOp48
 70
     1
102
RTVSPropertyOp49
 70
     1
102
RTVSPropertyOp50
 70
     1
102
RTVSPropertyOp51
 70
     0
102
RTVSPropertyOp52
 70
     0
102
RTVSPropertyOp53
 70
     1
102
RTVSPropertyOp54
 70
     1
102
RTVSPropertyOp55
 70
     1
102
RTVSPropertyOp56
 70
     1
102
RTVSPropertyOp57
 70
     1
102
RTVSPropertyOp58
 70
     1
102
RTVSPropertyOp59
 70
     1
102
RTVSPropertyOp60
 70
     1
102
RTVSPropertyOp61
 70
     1
102
RTVSPropertyOp62
 70
     1
  0
XRECORD
  5
522
102
{ACAD_REACTORS
330
521
102
}
330
521
100
AcDbXrecord
280
     1
102
RTVSPost2010Prop28
280
     0
102
RTVSPost2010PropOp28
 70
     1
102
RTVSPost2010Prop29
280
     1
102
RTVSPost2010PropOp29
 70
     1
102
RTVSPost2010Prop30
280
     1
102
RTVSPost2010PropOp30
 70
     1
102
RTVSPost2010Prop31
280
     0
102
RTVSPost2010PropOp31
 70
     1
102
RTVSPost2010Prop32
280
     0
102
RTVSPost2010PropOp32
 70
     1
102
RTVSPost2010Prop33
280
     0
102
RTVSPost2010PropOp33
 70
     1
102
RTVSPost2010Prop34
280
     0
102
RTVSPost2010PropOp34
 70
     1
102
RTVSPost2010Prop35
280
     0
102
RTVSPost2010PropOp35
 70
     1
102
RTVSPost2010Prop36
280
     0
102
RTVSPost2010PropOp36
 70
     1
102
RTVSPost2010Prop37
 90
       50
102
RTVSPost2010PropOp37
 70
     1
102
RTVSPost2010Prop38
140
0.0
102
RTVSPost2010PropOp38
 70
     1
102
RTVSPost2010Prop39
140
1.0
102
RTVSPost2010PropOp39
 70
     1
102
RTVSPost2010Prop40
 90
        0
102
RTVSPost2010PropOp40
 70
     1
102
RTVSPost2010Prop41ColorIndex
 90
       18
102
RTVSPost2010Prop41ColorRGB
 90
        0
102
RTVSPost2010PropOp41
 70
     1
102
RTVSPost2010Prop42
 90
       50
102
RTVSPost2010PropOp42
 70
     1
102
RTVSPost2010Prop43
 90
        3
102
RTVSPost2010PropOp43
 70
     1
102
RTVSPost2010Prop44ColorIndex
 90
        5
102
RTVSPost2010Prop44ColorRGB
 90
      255
102
RTVSPost2010PropOp44
 70
     1
102
RTVSPost2010Prop45
280
     0
102
RTVSPost2010PropOp45
 70
     1
102
RTVSPost2010Prop46
 90
       50
102
RTVSPost2010PropOp46
 70
     1
102
RTVSPost2010Prop47
 90
       50
102
RTVSPost2010PropOp47
 70
     1
102
RTVSPost2010Prop48
 90
       50
102
RTVSPost2010PropOp48
 70
     1
102
RTVSPost2010Prop49
280
     0
102
RTVSPost2010PropOp49
 70
     1
102
RTVSPost2010Prop50
 90
       50
102
RTVSPost2010PropOp50
 70
     1
102
RTVSPost2010Prop51ColorIndex
 90
      256
102
RTVSPost2010Prop51ColorRGB
 90
-16777216
102
RTVSPost2010PropOp51
 70
     0
102
RTVSPost2010Prop52
140
1.0
102
RTVSPost2010PropOp52
 70
     0
102
RTVSPost2010Prop53
 90
        2
102
RTVSPost2010PropOp53
 70
     1
102
RTVSPost2010Prop54
  1
strokes_ogs.tif
102
RTVSPost2010PropOp54
 70
     1
102
RTVSPost2010Prop55
280
     0
102
RTVSPost2010PropOp55
 70
     1
102
RTVSPost2010Prop56
140
1.0
102
RTVSPost2010PropOp56
 70
     1
102
RTVSPost2010Prop57
140
1.0
102
RTVSPost2010PropOp57
 70
     1
102
RTVSPropertyOp0
 70
     1
102
RTVSPropertyOp1
 70
     1
102
RTVSPropertyOp2
 70
     1
102
RTVSPropertyOp3
 70
     1
102
RTVSPropertyOp4
 70
     1
102
RTVSPropertyOp5
 70
     1
102
RTVSPropertyOp6
 70
     1
102
RTVSPropertyOp7
 70
     1
102
RTVSPropertyOp8
 70
     1
102
RTVSPropertyOp9
 70
     1
102
RTVSPropertyOp10
 70
     1
102
RTVSPropertyOp11
 70
     1
102
RTVSPropertyOp12
 70
     1
102
RTVSPropertyOp13
 70
     1
102
RTVSPropertyOp14
 70
     1
102
RTVSPropertyOp15
 70
     1
102
RTVSPropertyOp16
 70
     1
102
RTVSPropertyOp17
 70
     1
102
RTVSPropertyOp18
 70
     1
102
RTVSPropertyOp19
 70
     1
102
RTVSPropertyOp20
 70
     1
102
RTVSPropertyOp21
 70
     1
102
RTVSPropertyOp22
 70
     1
102
RTVSPropertyOp23
 70
     1
102
RTVSPropertyOp24
 70
     1
102
RTVSPropertyOp25
 70
     1
102
RTVSPropertyOp26
 70
     1
102
RTVSPropertyOp27
 70
     1
102
RTVSPropertyOp28
 70
     1
102
RTVSPropertyOp29
 70
     1
102
RTVSPropertyOp30
 70
     1
102
RTVSPropertyOp31
 70
     1
102
RTVSPropertyOp32
 70
     1
102
RTVSPropertyOp33
 70
     1
102
RTVSPropertyOp34
 70
     1
102
RTVSPropertyOp35
 70
     1
102
RTVSPropertyOp36
 70
     1
102
RTVSPropertyOp37
 70
     1
102
RTVSPropertyOp38
 70
     1
102
RTVSPropertyOp39
 70
     1
102
RTVSPropertyOp40
 70
     1
102
RTVSPropertyOp41
 70
     1
102
RTVSPropertyOp42
 70
     1
102
RTVSPropertyOp43
 70
     1
102
RTVSPropertyOp44
 70
     1
102
RTVSPropertyOp45
 70
     1
102
RTVSPropertyOp46
 70
     1
102
RTVSPropertyOp47
 70
     1
102
RTVSPropertyOp48
 70
     1
102
RTVSPropertyOp49
 70
     1
102
RTVSPropertyOp50
 70
     1
102
RTVSPropertyOp51
 70
     0
102
RTVSPropertyOp52
 70
     0
102
RTVSPropertyOp53
 70
     1
102
RTVSPropertyOp54
 70
     1
102
RTVSPropertyOp55
 70
     1
102
RTVSPropertyOp56
 70
     1
102
RTVSPropertyOp57
 70
     1
102
RTVSPropertyOp58
 70
     1
102
RTVSPropertyOp59
 70
     1
102
RTVSPropertyOp60
 70
     1
102
RTVSPropertyOp61
 70
     1
102
RTVSPropertyOp62
 70
     1
  0
XRECORD
  5
530
102
{ACAD_REACTORS
330
52F
102
}
330
52F
100
AcDbXrecord
280
     1
102
RTVSPost2010Prop28
280
     0
102
RTVSPost2010PropOp28
 70
     1
102
RTVSPost2010Prop29
280
     1
102
RTVSPost2010PropOp29
 70
     1
102
RTVSPost2010Prop30
280
     1
102
RTVSPost2010PropOp30
 70
     1
102
RTVSPost2010Prop31
280
     0
102
RTVSPost2010PropOp31
 70
     1
102
RTVSPost2010Prop32
280
     0
102
RTVSPost2010PropOp32
 70
     1
102
RTVSPost2010Prop33
280
     0
102
RTVSPost2010PropOp33
 70
     1
102
RTVSPost2010Prop34
280
     0
102
RTVSPost2010PropOp34
 70
     1
102
RTVSPost2010Prop35
280
     0
102
RTVSPost2010PropOp35
 70
     1
102
RTVSPost2010Prop36
280
     0
102
RTVSPost2010PropOp36
 70
     1
102
RTVSPost2010Prop37
 90
       50
102
RTVSPost2010PropOp37
 70
     1
102
RTVSPost2010Prop38
140
0.0
102
RTVSPost2010PropOp38
 70
     1
102
RTVSPost2010Prop39
140
1.0
102
RTVSPost2010PropOp39
 70
     1
102
RTVSPost2010Prop40
 90
        0
102
RTVSPost2010PropOp40
 70
     1
102
RTVSPost2010Prop41ColorIndex
 90
       18
102
RTVSPost2010Prop41ColorRGB
 90
        0
102
RTVSPost2010PropOp41
 70
     1
102
RTVSPost2010Prop42
 90
       50
102
RTVSPost2010PropOp42
 70
     1
102
RTVSPost2010Prop43
 90
        3
102
RTVSPost2010PropOp43
 70
     1
102
RTVSPost2010Prop44ColorIndex
 90
        5
102
RTVSPost2010Prop44ColorRGB
 90
      255
102
RTVSPost2010PropOp44
 70
     1
102
RTVSPost2010Prop45
280
     0
102
RTVSPost2010PropOp45
 70
     1
102
RTVSPost2010Prop46
 90
       50
102
RTVSPost2010PropOp46
 70
     1
102
RTVSPost2010Prop47
 90
       50
102
RTVSPost2010PropOp47
 70
     1
102
RTVSPost2010Prop48
 90
       50
102
RTVSPost2010PropOp48
 70
     1
102
RTVSPost2010Prop49
280
     0
102
RTVSPost2010PropOp49
 70
     1
102
RTVSPost2010Prop50
 90
       50
102
RTVSPost2010PropOp50
 70
     1
102
RTVSPost2010Prop51ColorIndex
 90
      256
102
RTVSPost2010Prop51ColorRGB
 90
-16777216
102
RTVSPost2010PropOp51
 70
     0
102
RTVSPost2010Prop52
140
1.0
102
RTVSPost2010PropOp52
 70
     0
102
RTVSPost2010Prop53
 90
        2
102
RTVSPost2010PropOp53
 70
     1
102
RTVSPost2010Prop54
  1
strokes_ogs.tif
102
RTVSPost2010PropOp54
 70
     1
102
RTVSPost2010Prop55
280
     0
102
RTVSPost2010PropOp55
 70
     1
102
RTVSPost2010Prop56
140
1.0
102
RTVSPost2010PropOp56
 70
     1
102
RTVSPost2010Prop57
140
1.0
102
RTVSPost2010PropOp57
 70
     1
102
RTVSPropertyOp0
 70
     1
102
RTVSPropertyOp1
 70
     1
102
RTVSPropertyOp2
 70
     1
102
RTVSPropertyOp3
 70
     1
102
RTVSPropertyOp4
 70
     1
102
RTVSPropertyOp5
 70
     1
102
RTVSPropertyOp6
 70
     1
102
RTVSPropertyOp7
 70
     1
102
RTVSPropertyOp8
 70
     1
102
RTVSPropertyOp9
 70
     1
102
RTVSPropertyOp10
 70
     1
102
RTVSPropertyOp11
 70
     1
102
RTVSPropertyOp12
 70
     1
102
RTVSPropertyOp13
 70
     1
102
RTVSPropertyOp14
 70
     1
102
RTVSPropertyOp15
 70
     1
102
RTVSPropertyOp16
 70
     1
102
RTVSPropertyOp17
 70
     1
102
RTVSPropertyOp18
 70
     1
102
RTVSPropertyOp19
 70
     1
102
RTVSPropertyOp20
 70
     1
102
RTVSPropertyOp21
 70
     1
102
RTVSPropertyOp22
 70
     1
102
RTVSPropertyOp23
 70
     1
102
RTVSPropertyOp24
 70
     1
102
RTVSPropertyOp25
 70
     1
102
RTVSPropertyOp26
 70
     1
102
RTVSPropertyOp27
 70
     1
102
RTVSPropertyOp28
 70
     1
102
RTVSPropertyOp29
 70
     1
102
RTVSPropertyOp30
 70
     1
102
RTVSPropertyOp31
 70
     1
102
RTVSPropertyOp32
 70
     1
102
RTVSPropertyOp33
 70
     1
102
RTVSPropertyOp34
 70
     1
102
RTVSPropertyOp35
 70
     1
102
RTVSPropertyOp36
 70
     1
102
RTVSPropertyOp37
 70
     1
102
RTVSPropertyOp38
 70
     1
102
RTVSPropertyOp39
 70
     1
102
RTVSPropertyOp40
 70
     1
102
RTVSPropertyOp41
 70
     1
102
RTVSPropertyOp42
 70
     1
102
RTVSPropertyOp43
 70
     1
102
RTVSPropertyOp44
 70
     1
102
RTVSPropertyOp45
 70
     1
102
RTVSPropertyOp46
 70
     1
102
RTVSPropertyOp47
 70
     1
102
RTVSPropertyOp48
 70
     1
102
RTVSPropertyOp49
 70
     1
102
RTVSPropertyOp50
 70
     1
102
RTVSPropertyOp51
 70
     0
102
RTVSPropertyOp52
 70
     0
102
RTVSPropertyOp53
 70
     1
102
RTVSPropertyOp54
 70
     1
102
RTVSPropertyOp55
 70
     1
102
RTVSPropertyOp56
 70
     1
102
RTVSPropertyOp57
 70
     1
102
RTVSPropertyOp58
 70
     1
102
RTVSPropertyOp59
 70
     1
102
RTVSPropertyOp60
 70
     1
102
RTVSPropertyOp61
 70
     1
102
RTVSPropertyOp62
 70
     1
  0
XRECORD
  5
538
102
{ACAD_REACTORS
330
537
102
}
330
537
100
AcDbXrecord
280
     1
102
RTVSPost2010Prop28
280
     0
102
RTVSPost2010PropOp28
 70
     1
102
RTVSPost2010Prop29
280
     1
102
RTVSPost2010PropOp29
 70
     1
102
RTVSPost2010Prop30
280
     1
102
RTVSPost2010PropOp30
 70
     1
102
RTVSPost2010Prop31
280
     0
102
RTVSPost2010PropOp31
 70
     1
102
RTVSPost2010Prop32
280
     0
102
RTVSPost2010PropOp32
 70
     1
102
RTVSPost2010Prop33
280
     0
102
RTVSPost2010PropOp33
 70
     1
102
RTVSPost2010Prop34
280
     0
102
RTVSPost2010PropOp34
 70
     1
102
RTVSPost2010Prop35
280
     0
102
RTVSPost2010PropOp35
 70
     1
102
RTVSPost2010Prop36
280
     0
102
RTVSPost2010PropOp36
 70
     1
102
RTVSPost2010Prop37
 90
       50
102
RTVSPost2010PropOp37
 70
     1
102
RTVSPost2010Prop38
140
0.0
102
RTVSPost2010PropOp38
 70
     1
102
RTVSPost2010Prop39
140
1.0
102
RTVSPost2010PropOp39
 70
     1
102
RTVSPost2010Prop40
 90
        0
102
RTVSPost2010PropOp40
 70
     1
102
RTVSPost2010Prop41ColorIndex
 90
       18
102
RTVSPost2010Prop41ColorRGB
 90
        0
102
RTVSPost2010PropOp41
 70
     1
102
RTVSPost2010Prop42
 90
       50
102
RTVSPost2010PropOp42
 70
     1
102
RTVSPost2010Prop43
 90
        3
102
RTVSPost2010PropOp43
 70
     1
102
RTVSPost2010Prop44ColorIndex
 90
        5
102
RTVSPost2010Prop44ColorRGB
 90
      255
102
RTVSPost2010PropOp44
 70
     1
102
RTVSPost2010Prop45
280
     0
102
RTVSPost2010PropOp45
 70
     1
102
RTVSPost2010Prop46
 90
       50
102
RTVSPost2010PropOp46
 70
     1
102
RTVSPost2010Prop47
 90
       50
102
RTVSPost2010PropOp47
 70
     1
102
RTVSPost2010Prop48
 90
       50
102
RTVSPost2010PropOp48
 70
     1
102
RTVSPost2010Prop49
280
     0
102
RTVSPost2010PropOp49
 70
     1
102
RTVSPost2010Prop50
 90
       50
102
RTVSPost2010PropOp50
 70
     1
102
RTVSPost2010Prop51ColorIndex
 90
      256
102
RTVSPost2010Prop51ColorRGB
 90
-16777216
102
RTVSPost2010PropOp51
 70
     0
102
RTVSPost2010Prop52
140
1.0
102
RTVSPost2010PropOp52
 70
     0
102
RTVSPost2010Prop53
 90
        2
102
RTVSPost2010PropOp53
 70
     1
102
RTVSPost2010Prop54
  1
strokes_ogs.tif
102
RTVSPost2010PropOp54
 70
     1
102
RTVSPost2010Prop55
280
     0
102
RTVSPost2010PropOp55
 70
     1
102
RTVSPost2010Prop56
140
1.0
102
RTVSPost2010PropOp56
 70
     1
102
RTVSPost2010Prop57
140
1.0
102
RTVSPost2010PropOp57
 70
     1
102
RTVSPropertyOp0
 70
     1
102
RTVSPropertyOp1
 70
     1
102
RTVSPropertyOp2
 70
     1
102
RTVSPropertyOp3
 70
     1
102
RTVSPropertyOp4
 70
     1
102
RTVSPropertyOp5
 70
     1
102
RTVSPropertyOp6
 70
     1
102
RTVSPropertyOp7
 70
     1
102
RTVSPropertyOp8
 70
     1
102
RTVSPropertyOp9
 70
     1
102
RTVSPropertyOp10
 70
     1
102
RTVSPropertyOp11
 70
     1
102
RTVSPropertyOp12
 70
     1
102
RTVSPropertyOp13
 70
     1
102
RTVSPropertyOp14
 70
     1
102
RTVSPropertyOp15
 70
     1
102
RTVSPropertyOp16
 70
     1
102
RTVSPropertyOp17
 70
     1
102
RTVSPropertyOp18
 70
     1
102
RTVSPropertyOp19
 70
     1
102
RTVSPropertyOp20
 70
     1
102
RTVSPropertyOp21
 70
     1
102
RTVSPropertyOp22
 70
     1
102
RTVSPropertyOp23
 70
     1
102
RTVSPropertyOp24
 70
     1
102
RTVSPropertyOp25
 70
     1
102
RTVSPropertyOp26
 70
     1
102
RTVSPropertyOp27
 70
     1
102
RTVSPropertyOp28
 70
     1
102
RTVSPropertyOp29
 70
     1
102
RTVSPropertyOp30
 70
     1
102
RTVSPropertyOp31
 70
     1
102
RTVSPropertyOp32
 70
     1
102
RTVSPropertyOp33
 70
     1
102
RTVSPropertyOp34
 70
     1
102
RTVSPropertyOp35
 70
     1
102
RTVSPropertyOp36
 70
     1
102
RTVSPropertyOp37
 70
     1
102
RTVSPropertyOp38
 70
     1
102
RTVSPropertyOp39
 70
     1
102
RTVSPropertyOp40
 70
     1
102
RTVSPropertyOp41
 70
     1
102
RTVSPropertyOp42
 70
     1
102
RTVSPropertyOp43
 70
     1
102
RTVSPropertyOp44
 70
     1
102
RTVSPropertyOp45
 70
     1
102
RTVSPropertyOp46
 70
     1
102
RTVSPropertyOp47
 70
     1
102
RTVSPropertyOp48
 70
     1
102
RTVSPropertyOp49
 70
     1
102
RTVSPropertyOp50
 70
     1
102
RTVSPropertyOp51
 70
     0
102
RTVSPropertyOp52
 70
     0
102
RTVSPropertyOp53
 70
     1
102
RTVSPropertyOp54
 70
     1
102
RTVSPropertyOp55
 70
     1
102
RTVSPropertyOp56
 70
     1
102
RTVSPropertyOp57
 70
     1
102
RTVSPropertyOp58
 70
     1
102
RTVSPropertyOp59
 70
     1
102
RTVSPropertyOp60
 70
     1
102
RTVSPropertyOp61
 70
     1
102
RTVSPropertyOp62
 70
     1
  0
XRECORD
  5
52A
102
{ACAD_REACTORS
330
529
102
}
330
529
100
AcDbXrecord
280
     1
102
RTVSPost2010Prop28
280
     0
102
RTVSPost2010PropOp28
 70
     1
102
RTVSPost2010Prop29
280
     1
102
RTVSPost2010PropOp29
 70
     1
102
RTVSPost2010Prop30
280
     1
102
RTVSPost2010PropOp30
 70
     1
102
RTVSPost2010Prop31
280
     0
102
RTVSPost2010PropOp31
 70
     1
102
RTVSPost2010Prop32
280
     0
102
RTVSPost2010PropOp32
 70
     1
102
RTVSPost2010Prop33
280
     0
102
RTVSPost2010PropOp33
 70
     1
102
RTVSPost2010Prop34
280
     0
102
RTVSPost2010PropOp34
 70
     1
102
RTVSPost2010Prop35
280
     0
102
RTVSPost2010PropOp35
 70
     1
102
RTVSPost2010Prop36
280
     0
102
RTVSPost2010PropOp36
 70
     1
102
RTVSPost2010Prop37
 90
       50
102
RTVSPost2010PropOp37
 70
     1
102
RTVSPost2010Prop38
140
0.0
102
RTVSPost2010PropOp38
 70
     1
102
RTVSPost2010Prop39
140
1.0
102
RTVSPost2010PropOp39
 70
     1
102
RTVSPost2010Prop40
 90
        0
102
RTVSPost2010PropOp40
 70
     1
102
RTVSPost2010Prop41ColorIndex
 90
       18
102
RTVSPost2010Prop41ColorRGB
 90
        0
102
RTVSPost2010PropOp41
 70
     1
102
RTVSPost2010Prop42
 90
       50
102
RTVSPost2010PropOp42
 70
     1
102
RTVSPost2010Prop43
 90
        3
102
RTVSPost2010PropOp43
 70
     1
102
RTVSPost2010Prop44ColorIndex
 90
        5
102
RTVSPost2010Prop44ColorRGB
 90
      255
102
RTVSPost2010PropOp44
 70
     1
102
RTVSPost2010Prop45
280
     0
102
RTVSPost2010PropOp45
 70
     1
102
RTVSPost2010Prop46
 90
       50
102
RTVSPost2010PropOp46
 70
     1
102
RTVSPost2010Prop47
 90
       50
102
RTVSPost2010PropOp47
 70
     1
102
RTVSPost2010Prop48
 90
       50
102
RTVSPost2010PropOp48
 70
     1
102
RTVSPost2010Prop49
280
     0
102
RTVSPost2010PropOp49
 70
     1
102
RTVSPost2010Prop50
 90
       50
102
RTVSPost2010PropOp50
 70
     1
102
RTVSPost2010Prop51ColorIndex
 90
      256
102
RTVSPost2010Prop51ColorRGB
 90
-16777216
102
RTVSPost2010PropOp51
 70
     0
102
RTVSPost2010Prop52
140
1.0
102
RTVSPost2010PropOp52
 70
     0
102
RTVSPost2010Prop53
 90
        2
102
RTVSPost2010PropOp53
 70
     1
102
RTVSPost2010Prop54
  1
strokes_ogs.tif
102
RTVSPost2010PropOp54
 70
     1
102
RTVSPost2010Prop55
280
     0
102
RTVSPost2010PropOp55
 70
     1
102
RTVSPost2010Prop56
140
1.0
102
RTVSPost2010PropOp56
 70
     1
102
RTVSPost2010Prop57
140
1.0
102
RTVSPost2010PropOp57
 70
     1
102
RTVSPropertyOp0
 70
     1
102
RTVSPropertyOp1
 70
     1
102
RTVSPropertyOp2
 70
     1
102
RTVSPropertyOp3
 70
     1
102
RTVSPropertyOp4
 70
     1
102
RTVSPropertyOp5
 70
     1
102
RTVSPropertyOp6
 70
     1
102
RTVSPropertyOp7
 70
     1
102
RTVSPropertyOp8
 70
     1
102
RTVSPropertyOp9
 70
     1
102
RTVSPropertyOp10
 70
     1
102
RTVSPropertyOp11
 70
     1
102
RTVSPropertyOp12
 70
     1
102
RTVSPropertyOp13
 70
     1
102
RTVSPropertyOp14
 70
     1
102
RTVSPropertyOp15
 70
     1
102
RTVSPropertyOp16
 70
     1
102
RTVSPropertyOp17
 70
     1
102
RTVSPropertyOp18
 70
     1
102
RTVSPropertyOp19
 70
     1
102
RTVSPropertyOp20
 70
     1
102
RTVSPropertyOp21
 70
     1
102
RTVSPropertyOp22
 70
     1
102
RTVSPropertyOp23
 70
     1
102
RTVSPropertyOp24
 70
     1
102
RTVSPropertyOp25
 70
     1
102
RTVSPropertyOp26
 70
     1
102
RTVSPropertyOp27
 70
     1
102
RTVSPropertyOp28
 70
     1
102
RTVSPropertyOp29
 70
     1
102
RTVSPropertyOp30
 70
     1
102
RTVSPropertyOp31
 70
     1
102
RTVSPropertyOp32
 70
     1
102
RTVSPropertyOp33
 70
     1
102
RTVSPropertyOp34
 70
     1
102
RTVSPropertyOp35
 70
     1
102
RTVSPropertyOp36
 70
     1
102
RTVSPropertyOp37
 70
     1
102
RTVSPropertyOp38
 70
     1
102
RTVSPropertyOp39
 70
     1
102
RTVSPropertyOp40
 70
     1
102
RTVSPropertyOp41
 70
     1
102
RTVSPropertyOp42
 70
     1
102
RTVSPropertyOp43
 70
     1
102
RTVSPropertyOp44
 70
     1
102
RTVSPropertyOp45
 70
     1
102
RTVSPropertyOp46
 70
     1
102
RTVSPropertyOp47
 70
     1
102
RTVSPropertyOp48
 70
     1
102
RTVSPropertyOp49
 70
     1
102
RTVSPropertyOp50
 70
     1
102
RTVSPropertyOp51
 70
     0
102
RTVSPropertyOp52
 70
     0
102
RTVSPropertyOp53
 70
     1
102
RTVSPropertyOp54
 70
     1
102
RTVSPropertyOp55
 70
     1
102
RTVSPropertyOp56
 70
     1
102
RTVSPropertyOp57
 70
     1
102
RTVSPropertyOp58
 70
     1
102
RTVSPropertyOp59
 70
     1
102
RTVSPropertyOp60
 70
     1
102
RTVSPropertyOp61
 70
     1
102
RTVSPropertyOp62
 70
     1
  0
XRECORD
  5
52E
102
{ACAD_REACTORS
330
52D
102
}
330
52D
100
AcDbXrecord
280
     1
102
RTVSPost2010Prop28
280
     0
102
RTVSPost2010PropOp28
 70
     1
102
RTVSPost2010Prop29
280
     1
102
RTVSPost2010PropOp29
 70
     1
102
RTVSPost2010Prop30
280
     1
102
RTVSPost2010PropOp30
 70
     1
102
RTVSPost2010Prop31
280
     0
102
RTVSPost2010PropOp31
 70
     1
102
RTVSPost2010Prop32
280
     0
102
RTVSPost2010PropOp32
 70
     1
102
RTVSPost2010Prop33
280
     0
102
RTVSPost2010PropOp33
 70
     1
102
RTVSPost2010Prop34
280
     0
102
RTVSPost2010PropOp34
 70
     1
102
RTVSPost2010Prop35
280
     0
102
RTVSPost2010PropOp35
 70
     1
102
RTVSPost2010Prop36
280
     0
102
RTVSPost2010PropOp36
 70
     1
102
RTVSPost2010Prop37
 90
       50
102
RTVSPost2010PropOp37
 70
     1
102
RTVSPost2010Prop38
140
0.0
102
RTVSPost2010PropOp38
 70
     1
102
RTVSPost2010Prop39
140
1.0
102
RTVSPost2010PropOp39
 70
     1
102
RTVSPost2010Prop40
 90
        0
102
RTVSPost2010PropOp40
 70
     1
102
RTVSPost2010Prop41ColorIndex
 90
       18
102
RTVSPost2010Prop41ColorRGB
 90
        0
102
RTVSPost2010PropOp41
 70
     1
102
RTVSPost2010Prop42
 90
       50
102
RTVSPost2010PropOp42
 70
     1
102
RTVSPost2010Prop43
 90
        3
102
RTVSPost2010PropOp43
 70
     1
102
RTVSPost2010Prop44ColorIndex
 90
        5
102
RTVSPost2010Prop44ColorRGB
 90
      255
102
RTVSPost2010PropOp44
 70
     1
102
RTVSPost2010Prop45
280
     0
102
RTVSPost2010PropOp45
 70
     1
102
RTVSPost2010Prop46
 90
       50
102
RTVSPost2010PropOp46
 70
     1
102
RTVSPost2010Prop47
 90
       50
102
RTVSPost2010PropOp47
 70
     1
102
RTVSPost2010Prop48
 90
       50
102
RTVSPost2010PropOp48
 70
     1
102
RTVSPost2010Prop49
280
     0
102
RTVSPost2010PropOp49
 70
     1
102
RTVSPost2010Prop50
 90
       50
102
RTVSPost2010PropOp50
 70
     1
102
RTVSPost2010Prop51ColorIndex
 90
      256
102
RTVSPost2010Prop51ColorRGB
 90
-16777216
102
RTVSPost2010PropOp51
 70
     0
102
RTVSPost2010Prop52
140
1.0
102
RTVSPost2010PropOp52
 70
     0
102
RTVSPost2010Prop53
 90
        2
102
RTVSPost2010PropOp53
 70
     1
102
RTVSPost2010Prop54
  1
strokes_ogs.tif
102
RTVSPost2010PropOp54
 70
     1
102
RTVSPost2010Prop55
280
     0
102
RTVSPost2010PropOp55
 70
     1
102
RTVSPost2010Prop56
140
1.0
102
RTVSPost2010PropOp56
 70
     1
102
RTVSPost2010Prop57
140
1.0
102
RTVSPost2010PropOp57
 70
     1
102
RTVSPropertyOp0
 70
     1
102
RTVSPropertyOp1
 70
     1
102
RTVSPropertyOp2
 70
     1
102
RTVSPropertyOp3
 70
     1
102
RTVSPropertyOp4
 70
     1
102
RTVSPropertyOp5
 70
     1
102
RTVSPropertyOp6
 70
     1
102
RTVSPropertyOp7
 70
     1
102
RTVSPropertyOp8
 70
     1
102
RTVSPropertyOp9
 70
     1
102
RTVSPropertyOp10
 70
     1
102
RTVSPropertyOp11
 70
     1
102
RTVSPropertyOp12
 70
     1
102
RTVSPropertyOp13
 70
     1
102
RTVSPropertyOp14
 70
     1
102
RTVSPropertyOp15
 70
     1
102
RTVSPropertyOp16
 70
     1
102
RTVSPropertyOp17
 70
     1
102
RTVSPropertyOp18
 70
     1
102
RTVSPropertyOp19
 70
     1
102
RTVSPropertyOp20
 70
     1
102
RTVSPropertyOp21
 70
     1
102
RTVSPropertyOp22
 70
     1
102
RTVSPropertyOp23
 70
     1
102
RTVSPropertyOp24
 70
     1
102
RTVSPropertyOp25
 70
     1
102
RTVSPropertyOp26
 70
     1
102
RTVSPropertyOp27
 70
     1
102
RTVSPropertyOp28
 70
     1
102
RTVSPropertyOp29
 70
     1
102
RTVSPropertyOp30
 70
     1
102
RTVSPropertyOp31
 70
     1
102
RTVSPropertyOp32
 70
     1
102
RTVSPropertyOp33
 70
     1
102
RTVSPropertyOp34
 70
     1
102
RTVSPropertyOp35
 70
     1
102
RTVSPropertyOp36
 70
     1
102
RTVSPropertyOp37
 70
     1
102
RTVSPropertyOp38
 70
     1
102
RTVSPropertyOp39
 70
     1
102
RTVSPropertyOp40
 70
     1
102
RTVSPropertyOp41
 70
     1
102
RTVSPropertyOp42
 70
     1
102
RTVSPropertyOp43
 70
     1
102
RTVSPropertyOp44
 70
     1
102
RTVSPropertyOp45
 70
     1
102
RTVSPropertyOp46
 70
     1
102
RTVSPropertyOp47
 70
     1
102
RTVSPropertyOp48
 70
     1
102
RTVSPropertyOp49
 70
     1
102
RTVSPropertyOp50
 70
     1
102
RTVSPropertyOp51
 70
     0
102
RTVSPropertyOp52
 70
     0
102
RTVSPropertyOp53
 70
     1
102
RTVSPropertyOp54
 70
     1
102
RTVSPropertyOp55
 70
     1
102
RTVSPropertyOp56
 70
     1
102
RTVSPropertyOp57
 70
     1
102
RTVSPropertyOp58
 70
     1
102
RTVSPropertyOp59
 70
     1
102
RTVSPropertyOp60
 70
     1
102
RTVSPropertyOp61
 70
     1
102
RTVSPropertyOp62
 70
     1
  0
XRECORD
  5
548
102
{ACAD_REACTORS
330
547
102
}
330
547
100
AcDbXrecord
280
     1
102
RTVSPost2010Prop28
280
     0
102
RTVSPost2010PropOp28
 70
     1
102
RTVSPost2010Prop29
280
     1
102
RTVSPost2010PropOp29
 70
     1
102
RTVSPost2010Prop30
280
     1
102
RTVSPost2010PropOp30
 70
     1
102
RTVSPost2010Prop31
280
     0
102
RTVSPost2010PropOp31
 70
     1
102
RTVSPost2010Prop32
280
     0
102
RTVSPost2010PropOp32
 70
     1
102
RTVSPost2010Prop33
280
     0
102
RTVSPost2010PropOp33
 70
     1
102
RTVSPost2010Prop34
280
     0
102
RTVSPost2010PropOp34
 70
     1
102
RTVSPost2010Prop35
280
     0
102
RTVSPost2010PropOp35
 70
     1
102
RTVSPost2010Prop36
280
     0
102
RTVSPost2010PropOp36
 70
     1
102
RTVSPost2010Prop37
 90
       50
102
RTVSPost2010PropOp37
 70
     0
102
RTVSPost2010Prop38
140
0.0
102
RTVSPost2010PropOp38
 70
     0
102
RTVSPost2010Prop39
140
1.0
102
RTVSPost2010PropOp39
 70
     0
102
RTVSPost2010Prop40
 90
        0
102
RTVSPost2010PropOp40
 70
     0
102
RTVSPost2010Prop41ColorIndex
 90
       18
102
RTVSPost2010Prop41ColorRGB
 90
        0
102
RTVSPost2010PropOp41
 70
     0
102
RTVSPost2010Prop42
 90
       50
102
RTVSPost2010PropOp42
 70
     0
102
RTVSPost2010Prop43
 90
        3
102
RTVSPost2010PropOp43
 70
     0
102
RTVSPost2010Prop44ColorIndex
 90
        5
102
RTVSPost2010Prop44ColorRGB
 90
      255
102
RTVSPost2010PropOp44
 70
     0
102
RTVSPost2010Prop45
280
     0
102
RTVSPost2010PropOp45
 70
     1
102
RTVSPost2010Prop46
 90
       50
102
RTVSPost2010PropOp46
 70
     0
102
RTVSPost2010Prop47
 90
       50
102
RTVSPost2010PropOp47
 70
     0
102
RTVSPost2010Prop48
 90
       50
102
RTVSPost2010PropOp48
 70
     0
102
RTVSPost2010Prop49
280
     0
102
RTVSPost2010PropOp49
 70
     1
102
RTVSPost2010Prop50
 90
       50
102
RTVSPost2010PropOp50
 70
     0
102
RTVSPost2010Prop51ColorIndex
 90
      256
102
RTVSPost2010Prop51ColorRGB
 90
-16777216
102
RTVSPost2010PropOp51
 70
     0
102
RTVSPost2010Prop52
140
1.0
102
RTVSPost2010PropOp52
 70
     0
102
RTVSPost2010Prop53
 90
        2
102
RTVSPost2010PropOp53
 70
     0
102
RTVSPost2010Prop54
  1
strokes_ogs.tif
102
RTVSPost2010PropOp54
 70
     0
102
RTVSPost2010Prop55
280
     0
102
RTVSPost2010PropOp55
 70
     1
102
RTVSPost2010Prop56
140
1.0
102
RTVSPost2010PropOp56
 70
     0
102
RTVSPost2010Prop57
140
1.0
102
RTVSPost2010PropOp57
 70
     0
102
RTVSPropertyOp0
 70
     0
102
RTVSPropertyOp1
 70
     0
102
RTVSPropertyOp2
 70
     0
102
RTVSPropertyOp3
 70
     0
102
RTVSPropertyOp4
 70
     0
102
RTVSPropertyOp5
 70
     0
102
RTVSPropertyOp6
 70
     0
102
RTVSPropertyOp7
 70
     0
102
RTVSPropertyOp8
 70
     0
102
RTVSPropertyOp9
 70
     0
102
RTVSPropertyOp10
 70
     0
102
RTVSPropertyOp11
 70
     0
102
RTVSPropertyOp12
 70
     0
102
RTVSPropertyOp13
 70
     0
102
RTVSPropertyOp14
 70
     2
102
RTVSPropertyOp15
 70
     0
102
RTVSPropertyOp16
 70
     0
102
RTVSPropertyOp17
 70
     0
102
RTVSPropertyOp18
 70
     0
102
RTVSPropertyOp19
 70
     0
102
RTVSPropertyOp20
 70
     0
102
RTVSPropertyOp21
 70
     0
102
RTVSPropertyOp22
 70
     0
102
RTVSPropertyOp23
 70
     0
102
RTVSPropertyOp24
 70
     0
102
RTVSPropertyOp25
 70
     0
102
RTVSPropertyOp26
 70
     0
102
RTVSPropertyOp27
 70
     0
102
RTVSPropertyOp28
 70
     1
102
RTVSPropertyOp29
 70
     1
102
RTVSPropertyOp30
 70
     1
102
RTVSPropertyOp31
 70
     1
102
RTVSPropertyOp32
 70
     1
102
RTVSPropertyOp33
 70
     1
102
RTVSPropertyOp34
 70
     1
102
RTVSPropertyOp35
 70
     1
102
RTVSPropertyOp36
 70
     1
102
RTVSPropertyOp37
 70
     0
102
RTVSPropertyOp38
 70
     0
102
RTVSPropertyOp39
 70
     0
102
RTVSPropertyOp40
 70
     0
102
RTVSPropertyOp41
 70
     0
102
RTVSPropertyOp42
 70
     0
102
RTVSPropertyOp43
 70
     0
102
RTVSPropertyOp44
 70
     0
102
RTVSPropertyOp45
 70
     1
102
RTVSPropertyOp46
 70
     0
102
RTVSPropertyOp47
 70
     0
102
RTVSPropertyOp48
 70
     0
102
RTVSPropertyOp49
 70
     1
102
RTVSPropertyOp50
 70
     0
102
RTVSPropertyOp51
 70
     0
102
RTVSPropertyOp52
 70
     0
102
RTVSPropertyOp53
 70
     0
102
RTVSPropertyOp54
 70
     0
102
RTVSPropertyOp55
 70
     1
102
RTVSPropertyOp56
 70
     0
102
RTVSPropertyOp57
 70
     0
102
RTVSPropertyOp58
 70
     0
102
RTVSPropertyOp59
 70
     0
102
RTVSPropertyOp60
 70
     0
102
RTVSPropertyOp61
 70
     0
102
RTVSPropertyOp62
 70
     0
  0
XRECORD
  5
536
102
{ACAD_REACTORS
330
535
102
}
330
535
100
AcDbXrecord
280
     1
102
RTVSPost2010Prop28
280
     0
102
RTVSPost2010PropOp28
 70
     1
102
RTVSPost2010Prop29
280
     1
102
RTVSPost2010PropOp29
 70
     1
102
RTVSPost2010Prop30
280
     1
102
RTVSPost2010PropOp30
 70
     1
102
RTVSPost2010Prop31
280
     0
102
RTVSPost2010PropOp31
 70
     1
102
RTVSPost2010Prop32
280
     0
102
RTVSPost2010PropOp32
 70
     1
102
RTVSPost2010Prop33
280
     0
102
RTVSPost2010PropOp33
 70
     1
102
RTVSPost2010Prop34
280
     0
102
RTVSPost2010PropOp34
 70
     1
102
RTVSPost2010Prop35
280
     0
102
RTVSPost2010PropOp35
 70
     1
102
RTVSPost2010Prop36
280
     0
102
RTVSPost2010PropOp36
 70
     1
102
RTVSPost2010Prop37
 90
       50
102
RTVSPost2010PropOp37
 70
     1
102
RTVSPost2010Prop38
140
0.0
102
RTVSPost2010PropOp38
 70
     1
102
RTVSPost2010Prop39
140
1.0
102
RTVSPost2010PropOp39
 70
     1
102
RTVSPost2010Prop40
 90
        0
102
RTVSPost2010PropOp40
 70
     1
102
RTVSPost2010Prop41ColorIndex
 90
       18
102
RTVSPost2010Prop41ColorRGB
 90
        0
102
RTVSPost2010PropOp41
 70
     1
102
RTVSPost2010Prop42
 90
       50
102
RTVSPost2010PropOp42
 70
     1
102
RTVSPost2010Prop43
 90
        3
102
RTVSPost2010PropOp43
 70
     1
102
RTVSPost2010Prop44ColorIndex
 90
        5
102
RTVSPost2010Prop44ColorRGB
 90
      255
102
RTVSPost2010PropOp44
 70
     1
102
RTVSPost2010Prop45
280
     0
102
RTVSPost2010PropOp45
 70
     1
102
RTVSPost2010Prop46
 90
       50
102
RTVSPost2010PropOp46
 70
     1
102
RTVSPost2010Prop47
 90
       50
102
RTVSPost2010PropOp47
 70
     1
102
RTVSPost2010Prop48
 90
       50
102
RTVSPost2010PropOp48
 70
     1
102
RTVSPost2010Prop49
280
     0
102
RTVSPost2010PropOp49
 70
     1
102
RTVSPost2010Prop50
 90
       50
102
RTVSPost2010PropOp50
 70
     1
102
RTVSPost2010Prop51ColorIndex
 90
      256
102
RTVSPost2010Prop51ColorRGB
 90
-16777216
102
RTVSPost2010PropOp51
 70
     0
102
RTVSPost2010Prop52
140
1.0
102
RTVSPost2010PropOp52
 70
     0
102
RTVSPost2010Prop53
 90
        2
102
RTVSPost2010PropOp53
 70
     1
102
RTVSPost2010Prop54
  1
strokes_ogs.tif
102
RTVSPost2010PropOp54
 70
     1
102
RTVSPost2010Prop55
280
     0
102
RTVSPost2010PropOp55
 70
     1
102
RTVSPost2010Prop56
140
1.0
102
RTVSPost2010PropOp56
 70
     1
102
RTVSPost2010Prop57
140
1.0
102
RTVSPost2010PropOp57
 70
     1
102
RTVSPropertyOp0
 70
     1
102
RTVSPropertyOp1
 70
     1
102
RTVSPropertyOp2
 70
     1
102
RTVSPropertyOp3
 70
     1
102
RTVSPropertyOp4
 70
     1
102
RTVSPropertyOp5
 70
     1
102
RTVSPropertyOp6
 70
     1
102
RTVSPropertyOp7
 70
     1
102
RTVSPropertyOp8
 70
     1
102
RTVSPropertyOp9
 70
     1
102
RTVSPropertyOp10
 70
     1
102
RTVSPropertyOp11
 70
     1
102
RTVSPropertyOp12
 70
     1
102
RTVSPropertyOp13
 70
     1
102
RTVSPropertyOp14
 70
     1
102
RTVSPropertyOp15
 70
     1
102
RTVSPropertyOp16
 70
     1
102
RTVSPropertyOp17
 70
     1
102
RTVSPropertyOp18
 70
     1
102
RTVSPropertyOp19
 70
     1
102
RTVSPropertyOp20
 70
     1
102
RTVSPropertyOp21
 70
     1
102
RTVSPropertyOp22
 70
     1
102
RTVSPropertyOp23
 70
     1
102
RTVSPropertyOp24
 70
     1
102
RTVSPropertyOp25
 70
     1
102
RTVSPropertyOp26
 70
     1
102
RTVSPropertyOp27
 70
     1
102
RTVSPropertyOp28
 70
     1
102
RTVSPropertyOp29
 70
     1
102
RTVSPropertyOp30
 70
     1
102
RTVSPropertyOp31
 70
     1
102
RTVSPropertyOp32
 70
     1
102
RTVSPropertyOp33
 70
     1
102
RTVSPropertyOp34
 70
     1
102
RTVSPropertyOp35
 70
     1
102
RTVSPropertyOp36
 70
     1
102
RTVSPropertyOp37
 70
     1
102
RTVSPropertyOp38
 70
     1
102
RTVSPropertyOp39
 70
     1
102
RTVSPropertyOp40
 70
     1
102
RTVSPropertyOp41
 70
     1
102
RTVSPropertyOp42
 70
     1
102
RTVSPropertyOp43
 70
     1
102
RTVSPropertyOp44
 70
     1
102
RTVSPropertyOp45
 70
     1
102
RTVSPropertyOp46
 70
     1
102
RTVSPropertyOp47
 70
     1
102
RTVSPropertyOp48
 70
     1
102
RTVSPropertyOp49
 70
     1
102
RTVSPropertyOp50
 70
     1
102
RTVSPropertyOp51
 70
     0
102
RTVSPropertyOp52
 70
     0
102
RTVSPropertyOp53
 70
     1
102
RTVSPropertyOp54
 70
     1
102
RTVSPropertyOp55
 70
     1
102
RTVSPropertyOp56
 70
     1
102
RTVSPropertyOp57
 70
     1
102
RTVSPropertyOp58
 70
     1
102
RTVSPropertyOp59
 70
     1
102
RTVSPropertyOp60
 70
     1
102
RTVSPropertyOp61
 70
     1
102
RTVSPropertyOp62
 70
     1
  0
XRECORD
  5
51A
102
{ACAD_REACTORS
330
519
102
}
330
519
100
AcDbXrecord
280
     1
102
RTVSPost2010Prop28
280
     0
102
RTVSPost2010PropOp28
 70
     1
102
RTVSPost2010Prop29
280
     1
102
RTVSPost2010PropOp29
 70
     1
102
RTVSPost2010Prop30
280
     1
102
RTVSPost2010PropOp30
 70
     1
102
RTVSPost2010Prop31
280
     0
102
RTVSPost2010PropOp31
 70
     1
102
RTVSPost2010Prop32
280
     0
102
RTVSPost2010PropOp32
 70
     1
102
RTVSPost2010Prop33
280
     0
102
RTVSPost2010PropOp33
 70
     1
102
RTVSPost2010Prop34
280
     0
102
RTVSPost2010PropOp34
 70
     1
102
RTVSPost2010Prop35
280
     0
102
RTVSPost2010PropOp35
 70
     1
102
RTVSPost2010Prop36
280
     0
102
RTVSPost2010PropOp36
 70
     1
102
RTVSPost2010Prop37
 90
       50
102
RTVSPost2010PropOp37
 70
     1
102
RTVSPost2010Prop38
140
0.0
102
RTVSPost2010PropOp38
 70
     1
102
RTVSPost2010Prop39
140
1.0
102
RTVSPost2010PropOp39
 70
     1
102
RTVSPost2010Prop40
 90
        0
102
RTVSPost2010PropOp40
 70
     1
102
RTVSPost2010Prop41ColorIndex
 90
       18
102
RTVSPost2010Prop41ColorRGB
 90
        0
102
RTVSPost2010PropOp41
 70
     1
102
RTVSPost2010Prop42
 90
       50
102
RTVSPost2010PropOp42
 70
     1
102
RTVSPost2010Prop43
 90
        3
102
RTVSPost2010PropOp43
 70
     1
102
RTVSPost2010Prop44ColorIndex
 90
        5
102
RTVSPost2010Prop44ColorRGB
 90
      255
102
RTVSPost2010PropOp44
 70
     1
102
RTVSPost2010Prop45
280
     0
102
RTVSPost2010PropOp45
 70
     1
102
RTVSPost2010Prop46
 90
       50
102
RTVSPost2010PropOp46
 70
     1
102
RTVSPost2010Prop47
 90
       50
102
RTVSPost2010PropOp47
 70
     1
102
RTVSPost2010Prop48
 90
       50
102
RTVSPost2010PropOp48
 70
     1
102
RTVSPost2010Prop49
280
     0
102
RTVSPost2010PropOp49
 70
     1
102
RTVSPost2010Prop50
 90
       50
102
RTVSPost2010PropOp50
 70
     1
102
RTVSPost2010Prop51ColorIndex
 90
      256
102
RTVSPost2010Prop51ColorRGB
 90
-16777216
102
RTVSPost2010PropOp51
 70
     0
102
RTVSPost2010Prop52
140
1.0
102
RTVSPost2010PropOp52
 70
     0
102
RTVSPost2010Prop53
 90
        2
102
RTVSPost2010PropOp53
 70
     1
102
RTVSPost2010Prop54
  1
strokes_ogs.tif
102
RTVSPost2010PropOp54
 70
     1
102
RTVSPost2010Prop55
280
     0
102
RTVSPost2010PropOp55
 70
     1
102
RTVSPost2010Prop56
140
1.0
102
RTVSPost2010PropOp56
 70
     1
102
RTVSPost2010Prop57
140
1.0
102
RTVSPost2010PropOp57
 70
     1
102
RTVSPropertyOp0
 70
     1
102
RTVSPropertyOp1
 70
     1
102
RTVSPropertyOp2
 70
     1
102
RTVSPropertyOp3
 70
     1
102
RTVSPropertyOp4
 70
     1
102
RTVSPropertyOp5
 70
     1
102
RTVSPropertyOp6
 70
     1
102
RTVSPropertyOp7
 70
     1
102
RTVSPropertyOp8
 70
     1
102
RTVSPropertyOp9
 70
     1
102
RTVSPropertyOp10
 70
     1
102
RTVSPropertyOp11
 70
     1
102
RTVSPropertyOp12
 70
     1
102
RTVSPropertyOp13
 70
     1
102
RTVSPropertyOp14
 70
     1
102
RTVSPropertyOp15
 70
     1
102
RTVSPropertyOp16
 70
     1
102
RTVSPropertyOp17
 70
     1
102
RTVSPropertyOp18
 70
     1
102
RTVSPropertyOp19
 70
     1
102
RTVSPropertyOp20
 70
     1
102
RTVSPropertyOp21
 70
     1
102
RTVSPropertyOp22
 70
     1
102
RTVSPropertyOp23
 70
     1
102
RTVSPropertyOp24
 70
     1
102
RTVSPropertyOp25
 70
     1
102
RTVSPropertyOp26
 70
     1
102
RTVSPropertyOp27
 70
     1
102
RTVSPropertyOp28
 70
     1
102
RTVSPropertyOp29
 70
     1
102
RTVSPropertyOp30
 70
     1
102
RTVSPropertyOp31
 70
     1
102
RTVSPropertyOp32
 70
     1
102
RTVSPropertyOp33
 70
     1
102
RTVSPropertyOp34
 70
     1
102
RTVSPropertyOp35
 70
     1
102
RTVSPropertyOp36
 70
     1
102
RTVSPropertyOp37
 70
     1
102
RTVSPropertyOp38
 70
     1
102
RTVSPropertyOp39
 70
     1
102
RTVSPropertyOp40
 70
     1
102
RTVSPropertyOp41
 70
     1
102
RTVSPropertyOp42
 70
     1
102
RTVSPropertyOp43
 70
     1
102
RTVSPropertyOp44
 70
     1
102
RTVSPropertyOp45
 70
     1
102
RTVSPropertyOp46
 70
     1
102
RTVSPropertyOp47
 70
     1
102
RTVSPropertyOp48
 70
     1
102
RTVSPropertyOp49
 70
     1
102
RTVSPropertyOp50
 70
     1
102
RTVSPropertyOp51
 70
     0
102
RTVSPropertyOp52
 70
     0
102
RTVSPropertyOp53
 70
     1
102
RTVSPropertyOp54
 70
     1
102
RTVSPropertyOp55
 70
     1
102
RTVSPropertyOp56
 70
     1
102
RTVSPropertyOp57
 70
     1
102
RTVSPropertyOp58
 70
     1
102
RTVSPropertyOp59
 70
     1
102
RTVSPropertyOp60
 70
     1
102
RTVSPropertyOp61
 70
     1
102
RTVSPropertyOp62
 70
     1
  0
XRECORD
  5
51C
102
{ACAD_REACTORS
330
51B
102
}
330
51B
100
AcDbXrecord
280
     1
102
RTVSPost2010Prop28
280
     0
102
RTVSPost2010PropOp28
 70
     1
102
RTVSPost2010Prop29
280
     1
102
RTVSPost2010PropOp29
 70
     1
102
RTVSPost2010Prop30
280
     1
102
RTVSPost2010PropOp30
 70
     1
102
RTVSPost2010Prop31
280
     0
102
RTVSPost2010PropOp31
 70
     1
102
RTVSPost2010Prop32
280
     0
102
RTVSPost2010PropOp32
 70
     1
102
RTVSPost2010Prop33
280
     0
102
RTVSPost2010PropOp33
 70
     1
102
RTVSPost2010Prop34
280
     0
102
RTVSPost2010PropOp34
 70
     1
102
RTVSPost2010Prop35
280
     0
102
RTVSPost2010PropOp35
 70
     1
102
RTVSPost2010Prop36
280
     0
102
RTVSPost2010PropOp36
 70
     1
102
RTVSPost2010Prop37
 90
       50
102
RTVSPost2010PropOp37
 70
     1
102
RTVSPost2010Prop38
140
0.0
102
RTVSPost2010PropOp38
 70
     1
102
RTVSPost2010Prop39
140
1.0
102
RTVSPost2010PropOp39
 70
     1
102
RTVSPost2010Prop40
 90
        0
102
RTVSPost2010PropOp40
 70
     1
102
RTVSPost2010Prop41ColorIndex
 90
       18
102
RTVSPost2010Prop41ColorRGB
 90
        0
102
RTVSPost2010PropOp41
 70
     1
102
RTVSPost2010Prop42
 90
       50
102
RTVSPost2010PropOp42
 70
     1
102
RTVSPost2010Prop43
 90
        3
102
RTVSPost2010PropOp43
 70
     1
102
RTVSPost2010Prop44ColorIndex
 90
        5
102
RTVSPost2010Prop44ColorRGB
 90
      255
102
RTVSPost2010PropOp44
 70
     1
102
RTVSPost2010Prop45
280
     0
102
RTVSPost2010PropOp45
 70
     1
102
RTVSPost2010Prop46
 90
       50
102
RTVSPost2010PropOp46
 70
     1
102
RTVSPost2010Prop47
 90
       50
102
RTVSPost2010PropOp47
 70
     1
102
RTVSPost2010Prop48
 90
       50
102
RTVSPost2010PropOp48
 70
     1
102
RTVSPost2010Prop49
280
     0
102
RTVSPost2010PropOp49
 70
     1
102
RTVSPost2010Prop50
 90
       50
102
RTVSPost2010PropOp50
 70
     1
102
RTVSPost2010Prop51ColorIndex
 90
      256
102
RTVSPost2010Prop51ColorRGB
 90
-16777216
102
RTVSPost2010PropOp51
 70
     0
102
RTVSPost2010Prop52
140
1.0
102
RTVSPost2010PropOp52
 70
     0
102
RTVSPost2010Prop53
 90
        2
102
RTVSPost2010PropOp53
 70
     1
102
RTVSPost2010Prop54
  1
strokes_ogs.tif
102
RTVSPost2010PropOp54
 70
     1
102
RTVSPost2010Prop55
280
     0
102
RTVSPost2010PropOp55
 70
     1
102
RTVSPost2010Prop56
140
1.0
102
RTVSPost2010PropOp56
 70
     1
102
RTVSPost2010Prop57
140
1.0
102
RTVSPost2010PropOp57
 70
     1
102
RTVSPropertyOp0
 70
     1
102
RTVSPropertyOp1
 70
     1
102
RTVSPropertyOp2
 70
     1
102
RTVSPropertyOp3
 70
     1
102
RTVSPropertyOp4
 70
     1
102
RTVSPropertyOp5
 70
     1
102
RTVSPropertyOp6
 70
     1
102
RTVSPropertyOp7
 70
     1
102
RTVSPropertyOp8
 70
     1
102
RTVSPropertyOp9
 70
     1
102
RTVSPropertyOp10
 70
     1
102
RTVSPropertyOp11
 70
     1
102
RTVSPropertyOp12
 70
     1
102
RTVSPropertyOp13
 70
     1
102
RTVSPropertyOp14
 70
     1
102
RTVSPropertyOp15
 70
     1
102
RTVSPropertyOp16
 70
     1
102
RTVSPropertyOp17
 70
     1
102
RTVSPropertyOp18
 70
     1
102
RTVSPropertyOp19
 70
     1
102
RTVSPropertyOp20
 70
     1
102
RTVSPropertyOp21
 70
     1
102
RTVSPropertyOp22
 70
     1
102
RTVSPropertyOp23
 70
     1
102
RTVSPropertyOp24
 70
     1
102
RTVSPropertyOp25
 70
     1
102
RTVSPropertyOp26
 70
     1
102
RTVSPropertyOp27
 70
     1
102
RTVSPropertyOp28
 70
     1
102
RTVSPropertyOp29
 70
     1
102
RTVSPropertyOp30
 70
     1
102
RTVSPropertyOp31
 70
     1
102
RTVSPropertyOp32
 70
     1
102
RTVSPropertyOp33
 70
     1
102
RTVSPropertyOp34
 70
     1
102
RTVSPropertyOp35
 70
     1
102
RTVSPropertyOp36
 70
     1
102
RTVSPropertyOp37
 70
     1
102
RTVSPropertyOp38
 70
     1
102
RTVSPropertyOp39
 70
     1
102
RTVSPropertyOp40
 70
     1
102
RTVSPropertyOp41
 70
     1
102
RTVSPropertyOp42
 70
     1
102
RTVSPropertyOp43
 70
     1
102
RTVSPropertyOp44
 70
     1
102
RTVSPropertyOp45
 70
     1
102
RTVSPropertyOp46
 70
     1
102
RTVSPropertyOp47
 70
     1
102
RTVSPropertyOp48
 70
     1
102
RTVSPropertyOp49
 70
     1
102
RTVSPropertyOp50
 70
     1
102
RTVSPropertyOp51
 70
     0
102
RTVSPropertyOp52
 70
     0
102
RTVSPropertyOp53
 70
     1
102
RTVSPropertyOp54
 70
     1
102
RTVSPropertyOp55
 70
     1
102
RTVSPropertyOp56
 70
     1
102
RTVSPropertyOp57
 70
     1
102
RTVSPropertyOp58
 70
     1
102
RTVSPropertyOp59
 70
     1
102
RTVSPropertyOp60
 70
     1
102
RTVSPropertyOp61
 70
     1
102
RTVSPropertyOp62
 70
     1
  0
XRECORD
  5
51E
102
{ACAD_REACTORS
330
51D
102
}
330
51D
100
AcDbXrecord
280
     1
102
RTVSPost2010Prop28
280
     0
102
RTVSPost2010PropOp28
 70
     1
102
RTVSPost2010Prop29
280
     1
102
RTVSPost2010PropOp29
 70
     1
102
RTVSPost2010Prop30
280
     1
102
RTVSPost2010PropOp30
 70
     1
102
RTVSPost2010Prop31
280
     0
102
RTVSPost2010PropOp31
 70
     1
102
RTVSPost2010Prop32
280
     0
102
RTVSPost2010PropOp32
 70
     1
102
RTVSPost2010Prop33
280
     0
102
RTVSPost2010PropOp33
 70
     1
102
RTVSPost2010Prop34
280
     0
102
RTVSPost2010PropOp34
 70
     1
102
RTVSPost2010Prop35
280
     0
102
RTVSPost2010PropOp35
 70
     1
102
RTVSPost2010Prop36
280
     0
102
RTVSPost2010PropOp36
 70
     1
102
RTVSPost2010Prop37
 90
       50
102
RTVSPost2010PropOp37
 70
     1
102
RTVSPost2010Prop38
140
0.0
102
RTVSPost2010PropOp38
 70
     1
102
RTVSPost2010Prop39
140
1.0
102
RTVSPost2010PropOp39
 70
     1
102
RTVSPost2010Prop40
 90
        0
102
RTVSPost2010PropOp40
 70
     1
102
RTVSPost2010Prop41ColorIndex
 90
       18
102
RTVSPost2010Prop41ColorRGB
 90
        0
102
RTVSPost2010PropOp41
 70
     1
102
RTVSPost2010Prop42
 90
       50
102
RTVSPost2010PropOp42
 70
     1
102
RTVSPost2010Prop43
 90
        3
102
RTVSPost2010PropOp43
 70
     1
102
RTVSPost2010Prop44ColorIndex
 90
        5
102
RTVSPost2010Prop44ColorRGB
 90
      255
102
RTVSPost2010PropOp44
 70
     1
102
RTVSPost2010Prop45
280
     0
102
RTVSPost2010PropOp45
 70
     1
102
RTVSPost2010Prop46
 90
       50
102
RTVSPost2010PropOp46
 70
     1
102
RTVSPost2010Prop47
 90
       50
102
RTVSPost2010PropOp47
 70
     1
102
RTVSPost2010Prop48
 90
       50
102
RTVSPost2010PropOp48
 70
     1
102
RTVSPost2010Prop49
280
     0
102
RTVSPost2010PropOp49
 70
     1
102
RTVSPost2010Prop50
 90
       50
102
RTVSPost2010PropOp50
 70
     1
102
RTVSPost2010Prop51ColorIndex
 90
      256
102
RTVSPost2010Prop51ColorRGB
 90
-16777216
102
RTVSPost2010PropOp51
 70
     0
102
RTVSPost2010Prop52
140
1.0
102
RTVSPost2010PropOp52
 70
     0
102
RTVSPost2010Prop53
 90
        2
102
RTVSPost2010PropOp53
 70
     1
102
RTVSPost2010Prop54
  1
strokes_ogs.tif
102
RTVSPost2010PropOp54
 70
     1
102
RTVSPost2010Prop55
280
     0
102
RTVSPost2010PropOp55
 70
     1
102
RTVSPost2010Prop56
140
1.0
102
RTVSPost2010PropOp56
 70
     1
102
RTVSPost2010Prop57
140
1.0
102
RTVSPost2010PropOp57
 70
     1
102
RTVSPropertyOp0
 70
     1
102
RTVSPropertyOp1
 70
     1
102
RTVSPropertyOp2
 70
     1
102
RTVSPropertyOp3
 70
     1
102
RTVSPropertyOp4
 70
     1
102
RTVSPropertyOp5
 70
     1
102
RTVSPropertyOp6
 70
     1
102
RTVSPropertyOp7
 70
     1
102
RTVSPropertyOp8
 70
     1
102
RTVSPropertyOp9
 70
     1
102
RTVSPropertyOp10
 70
     1
102
RTVSPropertyOp11
 70
     1
102
RTVSPropertyOp12
 70
     1
102
RTVSPropertyOp13
 70
     1
102
RTVSPropertyOp14
 70
     1
102
RTVSPropertyOp15
 70
     1
102
RTVSPropertyOp16
 70
     1
102
RTVSPropertyOp17
 70
     1
102
RTVSPropertyOp18
 70
     1
102
RTVSPropertyOp19
 70
     1
102
RTVSPropertyOp20
 70
     1
102
RTVSPropertyOp21
 70
     1
102
RTVSPropertyOp22
 70
     1
102
RTVSPropertyOp23
 70
     1
102
RTVSPropertyOp24
 70
     1
102
RTVSPropertyOp25
 70
     1
102
RTVSPropertyOp26
 70
     1
102
RTVSPropertyOp27
 70
     1
102
RTVSPropertyOp28
 70
     1
102
RTVSPropertyOp29
 70
     1
102
RTVSPropertyOp30
 70
     1
102
RTVSPropertyOp31
 70
     1
102
RTVSPropertyOp32
 70
     1
102
RTVSPropertyOp33
 70
     1
102
RTVSPropertyOp34
 70
     1
102
RTVSPropertyOp35
 70
     1
102
RTVSPropertyOp36
 70
     1
102
RTVSPropertyOp37
 70
     1
102
RTVSPropertyOp38
 70
     1
102
RTVSPropertyOp39
 70
     1
102
RTVSPropertyOp40
 70
     1
102
RTVSPropertyOp41
 70
     1
102
RTVSPropertyOp42
 70
     1
102
RTVSPropertyOp43
 70
     1
102
RTVSPropertyOp44
 70
     1
102
RTVSPropertyOp45
 70
     1
102
RTVSPropertyOp46
 70
     1
102
RTVSPropertyOp47
 70
     1
102
RTVSPropertyOp48
 70
     1
102
RTVSPropertyOp49
 70
     1
102
RTVSPropertyOp50
 70
     1
102
RTVSPropertyOp51
 70
     0
102
RTVSPropertyOp52
 70
     0
102
RTVSPropertyOp53
 70
     1
102
RTVSPropertyOp54
 70
     1
102
RTVSPropertyOp55
 70
     1
102
RTVSPropertyOp56
 70
     1
102
RTVSPropertyOp57
 70
     1
102
RTVSPropertyOp58
 70
     1
102
RTVSPropertyOp59
 70
     1
102
RTVSPropertyOp60
 70
     1
102
RTVSPropertyOp61
 70
     1
102
RTVSPropertyOp62
 70
     1
  0
XRECORD
  5
520
102
{ACAD_REACTORS
330
51F
102
}
330
51F
100
AcDbXrecord
280
     1
102
RTVSPost2010Prop28
280
     0
102
RTVSPost2010PropOp28
 70
     1
102
RTVSPost2010Prop29
280
     1
102
RTVSPost2010PropOp29
 70
     1
102
RTVSPost2010Prop30
280
     1
102
RTVSPost2010PropOp30
 70
     1
102
RTVSPost2010Prop31
280
     0
102
RTVSPost2010PropOp31
 70
     1
102
RTVSPost2010Prop32
280
     0
102
RTVSPost2010PropOp32
 70
     1
102
RTVSPost2010Prop33
280
     0
102
RTVSPost2010PropOp33
 70
     1
102
RTVSPost2010Prop34
280
     0
102
RTVSPost2010PropOp34
 70
     1
102
RTVSPost2010Prop35
280
     0
102
RTVSPost2010PropOp35
 70
     1
102
RTVSPost2010Prop36
280
     0
102
RTVSPost2010PropOp36
 70
     1
102
RTVSPost2010Prop37
 90
       50
102
RTVSPost2010PropOp37
 70
     1
102
RTVSPost2010Prop38
140
0.0
102
RTVSPost2010PropOp38
 70
     1
102
RTVSPost2010Prop39
140
1.0
102
RTVSPost2010PropOp39
 70
     1
102
RTVSPost2010Prop40
 90
        0
102
RTVSPost2010PropOp40
 70
     1
102
RTVSPost2010Prop41ColorIndex
 90
       18
102
RTVSPost2010Prop41ColorRGB
 90
        0
102
RTVSPost2010PropOp41
 70
     1
102
RTVSPost2010Prop42
 90
       50
102
RTVSPost2010PropOp42
 70
     1
102
RTVSPost2010Prop43
 90
        3
102
RTVSPost2010PropOp43
 70
     1
102
RTVSPost2010Prop44ColorIndex
 90
        5
102
RTVSPost2010Prop44ColorRGB
 90
      255
102
RTVSPost2010PropOp44
 70
     1
102
RTVSPost2010Prop45
280
     0
102
RTVSPost2010PropOp45
 70
     1
102
RTVSPost2010Prop46
 90
       50
102
RTVSPost2010PropOp46
 70
     1
102
RTVSPost2010Prop47
 90
       50
102
RTVSPost2010PropOp47
 70
     1
102
RTVSPost2010Prop48
 90
       50
102
RTVSPost2010PropOp48
 70
     1
102
RTVSPost2010Prop49
280
     0
102
RTVSPost2010PropOp49
 70
     1
102
RTVSPost2010Prop50
 90
       50
102
RTVSPost2010PropOp50
 70
     1
102
RTVSPost2010Prop51ColorIndex
 90
      256
102
RTVSPost2010Prop51ColorRGB
 90
-16777216
102
RTVSPost2010PropOp51
 70
     0
102
RTVSPost2010Prop52
140
1.0
102
RTVSPost2010PropOp52
 70
     0
102
RTVSPost2010Prop53
 90
        2
102
RTVSPost2010PropOp53
 70
     1
102
RTVSPost2010Prop54
  1
strokes_ogs.tif
102
RTVSPost2010PropOp54
 70
     1
102
RTVSPost2010Prop55
280
     0
102
RTVSPost2010PropOp55
 70
     1
102
RTVSPost2010Prop56
140
1.0
102
RTVSPost2010PropOp56
 70
     1
102
RTVSPost2010Prop57
140
1.0
102
RTVSPost2010PropOp57
 70
     1
102
RTVSPropertyOp0
 70
     1
102
RTVSPropertyOp1
 70
     1
102
RTVSPropertyOp2
 70
     1
102
RTVSPropertyOp3
 70
     1
102
RTVSPropertyOp4
 70
     1
102
RTVSPropertyOp5
 70
     1
102
RTVSPropertyOp6
 70
     1
102
RTVSPropertyOp7
 70
     1
102
RTVSPropertyOp8
 70
     1
102
RTVSPropertyOp9
 70
     1
102
RTVSPropertyOp10
 70
     1
102
RTVSPropertyOp11
 70
     1
102
RTVSPropertyOp12
 70
     1
102
RTVSPropertyOp13
 70
     1
102
RTVSPropertyOp14
 70
     1
102
RTVSPropertyOp15
 70
     1
102
RTVSPropertyOp16
 70
     1
102
RTVSPropertyOp17
 70
     1
102
RTVSPropertyOp18
 70
     1
102
RTVSPropertyOp19
 70
     1
102
RTVSPropertyOp20
 70
     1
102
RTVSPropertyOp21
 70
     1
102
RTVSPropertyOp22
 70
     1
102
RTVSPropertyOp23
 70
     1
102
RTVSPropertyOp24
 70
     1
102
RTVSPropertyOp25
 70
     1
102
RTVSPropertyOp26
 70
     1
102
RTVSPropertyOp27
 70
     1
102
RTVSPropertyOp28
 70
     1
102
RTVSPropertyOp29
 70
     1
102
RTVSPropertyOp30
 70
     1
102
RTVSPropertyOp31
 70
     1
102
RTVSPropertyOp32
 70
     1
102
RTVSPropertyOp33
 70
     1
102
RTVSPropertyOp34
 70
     1
102
RTVSPropertyOp35
 70
     1
102
RTVSPropertyOp36
 70
     1
102
RTVSPropertyOp37
 70
     1
102
RTVSPropertyOp38
 70
     1
102
RTVSPropertyOp39
 70
     1
102
RTVSPropertyOp40
 70
     1
102
RTVSPropertyOp41
 70
     1
102
RTVSPropertyOp42
 70
     1
102
RTVSPropertyOp43
 70
     1
102
RTVSPropertyOp44
 70
     1
102
RTVSPropertyOp45
 70
     1
102
RTVSPropertyOp46
 70
     1
102
RTVSPropertyOp47
 70
     1
102
RTVSPropertyOp48
 70
     1
102
RTVSPropertyOp49
 70
     1
102
RTVSPropertyOp50
 70
     1
102
RTVSPropertyOp51
 70
     0
102
RTVSPropertyOp52
 70
     0
102
RTVSPropertyOp53
 70
     1
102
RTVSPropertyOp54
 70
     1
102
RTVSPropertyOp55
 70
     1
102
RTVSPropertyOp56
 70
     1
102
RTVSPropertyOp57
 70
     1
102
RTVSPropertyOp58
 70
     1
102
RTVSPropertyOp59
 70
     1
102
RTVSPropertyOp60
 70
     1
102
RTVSPropertyOp61
 70
     1
102
RTVSPropertyOp62
 70
     1
  0
XRECORD
  5
528
102
{ACAD_REACTORS
330
527
102
}
330
527
100
AcDbXrecord
280
     1
102
RTVSPost2010Prop28
280
     0
102
RTVSPost2010PropOp28
 70
     1
102
RTVSPost2010Prop29
280
     1
102
RTVSPost2010PropOp29
 70
     1
102
RTVSPost2010Prop30
280
     1
102
RTVSPost2010PropOp30
 70
     1
102
RTVSPost2010Prop31
280
     0
102
RTVSPost2010PropOp31
 70
     1
102
RTVSPost2010Prop32
280
     0
102
RTVSPost2010PropOp32
 70
     1
102
RTVSPost2010Prop33
280
     0
102
RTVSPost2010PropOp33
 70
     1
102
RTVSPost2010Prop34
280
     0
102
RTVSPost2010PropOp34
 70
     1
102
RTVSPost2010Prop35
280
     0
102
RTVSPost2010PropOp35
 70
     1
102
RTVSPost2010Prop36
280
     0
102
RTVSPost2010PropOp36
 70
     1
102
RTVSPost2010Prop37
 90
       50
102
RTVSPost2010PropOp37
 70
     1
102
RTVSPost2010Prop38
140
0.0
102
RTVSPost2010PropOp38
 70
     1
102
RTVSPost2010Prop39
140
1.0
102
RTVSPost2010PropOp39
 70
     1
102
RTVSPost2010Prop40
 90
        0
102
RTVSPost2010PropOp40
 70
     1
102
RTVSPost2010Prop41ColorIndex
 90
       18
102
RTVSPost2010Prop41ColorRGB
 90
        0
102
RTVSPost2010PropOp41
 70
     1
102
RTVSPost2010Prop42
 90
       50
102
RTVSPost2010PropOp42
 70
     1
102
RTVSPost2010Prop43
 90
        3
102
RTVSPost2010PropOp43
 70
     1
102
RTVSPost2010Prop44ColorIndex
 90
        5
102
RTVSPost2010Prop44ColorRGB
 90
      255
102
RTVSPost2010PropOp44
 70
     1
102
RTVSPost2010Prop45
280
     0
102
RTVSPost2010PropOp45
 70
     1
102
RTVSPost2010Prop46
 90
       50
102
RTVSPost2010PropOp46
 70
     1
102
RTVSPost2010Prop47
 90
       50
102
RTVSPost2010PropOp47
 70
     1
102
RTVSPost2010Prop48
 90
       50
102
RTVSPost2010PropOp48
 70
     1
102
RTVSPost2010Prop49
280
     0
102
RTVSPost2010PropOp49
 70
     1
102
RTVSPost2010Prop50
 90
       50
102
RTVSPost2010PropOp50
 70
     1
102
RTVSPost2010Prop51ColorIndex
 90
      256
102
RTVSPost2010Prop51ColorRGB
 90
-16777216
102
RTVSPost2010PropOp51
 70
     0
102
RTVSPost2010Prop52
140
1.0
102
RTVSPost2010PropOp52
 70
     0
102
RTVSPost2010Prop53
 90
        2
102
RTVSPost2010PropOp53
 70
     1
102
RTVSPost2010Prop54
  1
strokes_ogs.tif
102
RTVSPost2010PropOp54
 70
     1
102
RTVSPost2010Prop55
280
     0
102
RTVSPost2010PropOp55
 70
     1
102
RTVSPost2010Prop56
140
1.0
102
RTVSPost2010PropOp56
 70
     1
102
RTVSPost2010Prop57
140
1.0
102
RTVSPost2010PropOp57
 70
     1
102
RTVSPropertyOp0
 70
     1
102
RTVSPropertyOp1
 70
     1
102
RTVSPropertyOp2
 70
     1
102
RTVSPropertyOp3
 70
     1
102
RTVSPropertyOp4
 70
     1
102
RTVSPropertyOp5
 70
     1
102
RTVSPropertyOp6
 70
     1
102
RTVSPropertyOp7
 70
     1
102
RTVSPropertyOp8
 70
     1
102
RTVSPropertyOp9
 70
     1
102
RTVSPropertyOp10
 70
     1
102
RTVSPropertyOp11
 70
     1
102
RTVSPropertyOp12
 70
     1
102
RTVSPropertyOp13
 70
     1
102
RTVSPropertyOp14
 70
     1
102
RTVSPropertyOp15
 70
     1
102
RTVSPropertyOp16
 70
     1
102
RTVSPropertyOp17
 70
     1
102
RTVSPropertyOp18
 70
     1
102
RTVSPropertyOp19
 70
     1
102
RTVSPropertyOp20
 70
     1
102
RTVSPropertyOp21
 70
     1
102
RTVSPropertyOp22
 70
     1
102
RTVSPropertyOp23
 70
     1
102
RTVSPropertyOp24
 70
     1
102
RTVSPropertyOp25
 70
     1
102
RTVSPropertyOp26
 70
     1
102
RTVSPropertyOp27
 70
     1
102
RTVSPropertyOp28
 70
     1
102
RTVSPropertyOp29
 70
     1
102
RTVSPropertyOp30
 70
     1
102
RTVSPropertyOp31
 70
     1
102
RTVSPropertyOp32
 70
     1
102
RTVSPropertyOp33
 70
     1
102
RTVSPropertyOp34
 70
     1
102
RTVSPropertyOp35
 70
     1
102
RTVSPropertyOp36
 70
     1
102
RTVSPropertyOp37
 70
     1
102
RTVSPropertyOp38
 70
     1
102
RTVSPropertyOp39
 70
     1
102
RTVSPropertyOp40
 70
     1
102
RTVSPropertyOp41
 70
     1
102
RTVSPropertyOp42
 70
     1
102
RTVSPropertyOp43
 70
     1
102
RTVSPropertyOp44
 70
     1
102
RTVSPropertyOp45
 70
     1
102
RTVSPropertyOp46
 70
     1
102
RTVSPropertyOp47
 70
     1
102
RTVSPropertyOp48
 70
     1
102
RTVSPropertyOp49
 70
     1
102
RTVSPropertyOp50
 70
     1
102
RTVSPropertyOp51
 70
     0
102
RTVSPropertyOp52
 70
     0
102
RTVSPropertyOp53
 70
     1
102
RTVSPropertyOp54
 70
     1
102
RTVSPropertyOp55
 70
     1
102
RTVSPropertyOp56
 70
     1
102
RTVSPropertyOp57
 70
     1
102
RTVSPropertyOp58
 70
     1
102
RTVSPropertyOp59
 70
     1
102
RTVSPropertyOp60
 70
     1
102
RTVSPropertyOp61
 70
     1
102
RTVSPropertyOp62
 70
     1
  0
XRECORD
  5
544
102
{ACAD_REACTORS
330
543
102
}
330
543
100
AcDbXrecord
280
     1
102
RTVSPost2010Prop28
280
     0
102
RTVSPost2010PropOp28
 70
     1
102
RTVSPost2010Prop29
280
     1
102
RTVSPost2010PropOp29
 70
     1
102
RTVSPost2010Prop30
280
     1
102
RTVSPost2010PropOp30
 70
     1
102
RTVSPost2010Prop31
280
     0
102
RTVSPost2010PropOp31
 70
     1
102
RTVSPost2010Prop32
280
     0
102
RTVSPost2010PropOp32
 70
     1
102
RTVSPost2010Prop33
280
     0
102
RTVSPost2010PropOp33
 70
     1
102
RTVSPost2010Prop34
280
     0
102
RTVSPost2010PropOp34
 70
     1
102
RTVSPost2010Prop35
280
     0
102
RTVSPost2010PropOp35
 70
     1
102
RTVSPost2010Prop36
280
     0
102
RTVSPost2010PropOp36
 70
     1
102
RTVSPost2010Prop37
 90
       50
102
RTVSPost2010PropOp37
 70
     0
102
RTVSPost2010Prop38
140
0.0
102
RTVSPost2010PropOp38
 70
     0
102
RTVSPost2010Prop39
140
1.0
102
RTVSPost2010PropOp39
 70
     0
102
RTVSPost2010Prop40
 90
        0
102
RTVSPost2010PropOp40
 70
     0
102
RTVSPost2010Prop41ColorIndex
 90
       18
102
RTVSPost2010Prop41ColorRGB
 90
        0
102
RTVSPost2010PropOp41
 70
     0
102
RTVSPost2010Prop42
 90
       50
102
RTVSPost2010PropOp42
 70
     0
102
RTVSPost2010Prop43
 90
        3
102
RTVSPost2010PropOp43
 70
     0
102
RTVSPost2010Prop44ColorIndex
 90
        5
102
RTVSPost2010Prop44ColorRGB
 90
      255
102
RTVSPost2010PropOp44
 70
     0
102
RTVSPost2010Prop45
280
     0
102
RTVSPost2010PropOp45
 70
     1
102
RTVSPost2010Prop46
 90
       50
102
RTVSPost2010PropOp46
 70
     0
102
RTVSPost2010Prop47
 90
       50
102
RTVSPost2010PropOp47
 70
     0
102
RTVSPost2010Prop48
 90
       50
102
RTVSPost2010PropOp48
 70
     0
102
RTVSPost2010Prop49
280
     0
102
RTVSPost2010PropOp49
 70
     1
102
RTVSPost2010Prop50
 90
       50
102
RTVSPost2010PropOp50
 70
     0
102
RTVSPost2010Prop51ColorIndex
 90
      256
102
RTVSPost2010Prop51ColorRGB
 90
-16777216
102
RTVSPost2010PropOp51
 70
     0
102
RTVSPost2010Prop52
140
1.0
102
RTVSPost2010PropOp52
 70
     0
102
RTVSPost2010Prop53
 90
        2
102
RTVSPost2010PropOp53
 70
     0
102
RTVSPost2010Prop54
  1
strokes_ogs.tif
102
RTVSPost2010PropOp54
 70
     0
102
RTVSPost2010Prop55
280
     0
102
RTVSPost2010PropOp55
 70
     1
102
RTVSPost2010Prop56
140
1.0
102
RTVSPost2010PropOp56
 70
     0
102
RTVSPost2010Prop57
140
1.0
102
RTVSPost2010PropOp57
 70
     0
102
RTVSPropertyOp0
 70
     0
102
RTVSPropertyOp1
 70
     0
102
RTVSPropertyOp2
 70
     0
102
RTVSPropertyOp3
 70
     0
102
RTVSPropertyOp4
 70
     0
102
RTVSPropertyOp5
 70
     0
102
RTVSPropertyOp6
 70
     0
102
RTVSPropertyOp7
 70
     0
102
RTVSPropertyOp8
 70
     0
102
RTVSPropertyOp9
 70
     0
102
RTVSPropertyOp10
 70
     0
102
RTVSPropertyOp11
 70
     0
102
RTVSPropertyOp12
 70
     0
102
RTVSPropertyOp13
 70
     0
102
RTVSPropertyOp14
 70
     2
102
RTVSPropertyOp15
 70
     0
102
RTVSPropertyOp16
 70
     0
102
RTVSPropertyOp17
 70
     0
102
RTVSPropertyOp18
 70
     0
102
RTVSPropertyOp19
 70
     0
102
RTVSPropertyOp20
 70
     0
102
RTVSPropertyOp21
 70
     0
102
RTVSPropertyOp22
 70
     0
102
RTVSPropertyOp23
 70
     0
102
RTVSPropertyOp24
 70
     0
102
RTVSPropertyOp25
 70
     0
102
RTVSPropertyOp26
 70
     0
102
RTVSPropertyOp27
 70
     0
102
RTVSPropertyOp28
 70
     1
102
RTVSPropertyOp29
 70
     1
102
RTVSPropertyOp30
 70
     1
102
RTVSPropertyOp31
 70
     1
102
RTVSPropertyOp32
 70
     1
102
RTVSPropertyOp33
 70
     1
102
RTVSPropertyOp34
 70
     1
102
RTVSPropertyOp35
 70
     1
102
RTVSPropertyOp36
 70
     1
102
RTVSPropertyOp37
 70
     0
102
RTVSPropertyOp38
 70
     0
102
RTVSPropertyOp39
 70
     0
102
RTVSPropertyOp40
 70
     0
102
RTVSPropertyOp41
 70
     0
102
RTVSPropertyOp42
 70
     0
102
RTVSPropertyOp43
 70
     0
102
RTVSPropertyOp44
 70
     0
102
RTVSPropertyOp45
 70
     1
102
RTVSPropertyOp46
 70
     0
102
RTVSPropertyOp47
 70
     0
102
RTVSPropertyOp48
 70
     0
102
RTVSPropertyOp49
 70
     1
102
RTVSPropertyOp50
 70
     0
102
RTVSPropertyOp51
 70
     0
102
RTVSPropertyOp52
 70
     0
102
RTVSPropertyOp53
 70
     0
102
RTVSPropertyOp54
 70
     0
102
RTVSPropertyOp55
 70
     1
102
RTVSPropertyOp56
 70
     0
102
RTVSPropertyOp57
 70
     0
102
RTVSPropertyOp58
 70
     0
102
RTVSPropertyOp59
 70
     0
102
RTVSPropertyOp60
 70
     0
102
RTVSPropertyOp61
 70
     0
102
RTVSPropertyOp62
 70
     0
  0
XRECORD
  5
534
102
{ACAD_REACTORS
330
533
102
}
330
533
100
AcDbXrecord
280
     1
102
RTVSPost2010Prop28
280
     0
102
RTVSPost2010PropOp28
 70
     1
102
RTVSPost2010Prop29
280
     1
102
RTVSPost2010PropOp29
 70
     1
102
RTVSPost2010Prop30
280
     1
102
RTVSPost2010PropOp30
 70
     1
102
RTVSPost2010Prop31
280
     0
102
RTVSPost2010PropOp31
 70
     1
102
RTVSPost2010Prop32
280
     0
102
RTVSPost2010PropOp32
 70
     1
102
RTVSPost2010Prop33
280
     0
102
RTVSPost2010PropOp33
 70
     1
102
RTVSPost2010Prop34
280
     0
102
RTVSPost2010PropOp34
 70
     1
102
RTVSPost2010Prop35
280
     0
102
RTVSPost2010PropOp35
 70
     1
102
RTVSPost2010Prop36
280
     0
102
RTVSPost2010PropOp36
 70
     1
102
RTVSPost2010Prop37
 90
       50
102
RTVSPost2010PropOp37
 70
     1
102
RTVSPost2010Prop38
140
0.0
102
RTVSPost2010PropOp38
 70
     1
102
RTVSPost2010Prop39
140
1.0
102
RTVSPost2010PropOp39
 70
     1
102
RTVSPost2010Prop40
 90
        0
102
RTVSPost2010PropOp40
 70
     1
102
RTVSPost2010Prop41ColorIndex
 90
       18
102
RTVSPost2010Prop41ColorRGB
 90
        0
102
RTVSPost2010PropOp41
 70
     1
102
RTVSPost2010Prop42
 90
       50
102
RTVSPost2010PropOp42
 70
     1
102
RTVSPost2010Prop43
 90
        3
102
RTVSPost2010PropOp43
 70
     1
102
RTVSPost2010Prop44ColorIndex
 90
        5
102
RTVSPost2010Prop44ColorRGB
 90
      255
102
RTVSPost2010PropOp44
 70
     1
102
RTVSPost2010Prop45
280
     0
102
RTVSPost2010PropOp45
 70
     1
102
RTVSPost2010Prop46
 90
       50
102
RTVSPost2010PropOp46
 70
     1
102
RTVSPost2010Prop47
 90
       50
102
RTVSPost2010PropOp47
 70
     1
102
RTVSPost2010Prop48
 90
       50
102
RTVSPost2010PropOp48
 70
     1
102
RTVSPost2010Prop49
280
     0
102
RTVSPost2010PropOp49
 70
     1
102
RTVSPost2010Prop50
 90
       50
102
RTVSPost2010PropOp50
 70
     1
102
RTVSPost2010Prop51ColorIndex
 90
      256
102
RTVSPost2010Prop51ColorRGB
 90
-16777216
102
RTVSPost2010PropOp51
 70
     0
102
RTVSPost2010Prop52
140
1.0
102
RTVSPost2010PropOp52
 70
     0
102
RTVSPost2010Prop53
 90
        2
102
RTVSPost2010PropOp53
 70
     1
102
RTVSPost2010Prop54
  1
strokes_ogs.tif
102
RTVSPost2010PropOp54
 70
     1
102
RTVSPost2010Prop55
280
     0
102
RTVSPost2010PropOp55
 70
     1
102
RTVSPost2010Prop56
140
1.0
102
RTVSPost2010PropOp56
 70
     1
102
RTVSPost2010Prop57
140
1.0
102
RTVSPost2010PropOp57
 70
     1
102
RTVSPropertyOp0
 70
     1
102
RTVSPropertyOp1
 70
     1
102
RTVSPropertyOp2
 70
     1
102
RTVSPropertyOp3
 70
     1
102
RTVSPropertyOp4
 70
     1
102
RTVSPropertyOp5
 70
     1
102
RTVSPropertyOp6
 70
     1
102
RTVSPropertyOp7
 70
     1
102
RTVSPropertyOp8
 70
     1
102
RTVSPropertyOp9
 70
     1
102
RTVSPropertyOp10
 70
     1
102
RTVSPropertyOp11
 70
     1
102
RTVSPropertyOp12
 70
     1
102
RTVSPropertyOp13
 70
     1
102
RTVSPropertyOp14
 70
     1
102
RTVSPropertyOp15
 70
     1
102
RTVSPropertyOp16
 70
     1
102
RTVSPropertyOp17
 70
     1
102
RTVSPropertyOp18
 70
     1
102
RTVSPropertyOp19
 70
     1
102
RTVSPropertyOp20
 70
     1
102
RTVSPropertyOp21
 70
     1
102
RTVSPropertyOp22
 70
     1
102
RTVSPropertyOp23
 70
     1
102
RTVSPropertyOp24
 70
     1
102
RTVSPropertyOp25
 70
     1
102
RTVSPropertyOp26
 70
     1
102
RTVSPropertyOp27
 70
     1
102
RTVSPropertyOp28
 70
     1
102
RTVSPropertyOp29
 70
     1
102
RTVSPropertyOp30
 70
     1
102
RTVSPropertyOp31
 70
     1
102
RTVSPropertyOp32
 70
     1
102
RTVSPropertyOp33
 70
     1
102
RTVSPropertyOp34
 70
     1
102
RTVSPropertyOp35
 70
     1
102
RTVSPropertyOp36
 70
     1
102
RTVSPropertyOp37
 70
     1
102
RTVSPropertyOp38
 70
     1
102
RTVSPropertyOp39
 70
     1
102
RTVSPropertyOp40
 70
     1
102
RTVSPropertyOp41
 70
     1
102
RTVSPropertyOp42
 70
     1
102
RTVSPropertyOp43
 70
     1
102
RTVSPropertyOp44
 70
     1
102
RTVSPropertyOp45
 70
     1
102
RTVSPropertyOp46
 70
     1
102
RTVSPropertyOp47
 70
     1
102
RTVSPropertyOp48
 70
     1
102
RTVSPropertyOp49
 70
     1
102
RTVSPropertyOp50
 70
     1
102
RTVSPropertyOp51
 70
     0
102
RTVSPropertyOp52
 70
     0
102
RTVSPropertyOp53
 70
     1
102
RTVSPropertyOp54
 70
     1
102
RTVSPropertyOp55
 70
     1
102
RTVSPropertyOp56
 70
     1
102
RTVSPropertyOp57
 70
     1
102
RTVSPropertyOp58
 70
     1
102
RTVSPropertyOp59
 70
     1
102
RTVSPropertyOp60
 70
     1
102
RTVSPropertyOp61
 70
     1
102
RTVSPropertyOp62
 70
     1
  0
XRECORD
  5
546
102
{ACAD_REACTORS
330
545
102
}
330
545
100
AcDbXrecord
280
     1
102
RTVSPost2010Prop28
280
     0
102
RTVSPost2010PropOp28
 70
     1
102
RTVSPost2010Prop29
280
     1
102
RTVSPost2010PropOp29
 70
     1
102
RTVSPost2010Prop30
280
     1
102
RTVSPost2010PropOp30
 70
     1
102
RTVSPost2010Prop31
280
     0
102
RTVSPost2010PropOp31
 70
     1
102
RTVSPost2010Prop32
280
     0
102
RTVSPost2010PropOp32
 70
     1
102
RTVSPost2010Prop33
280
     0
102
RTVSPost2010PropOp33
 70
     1
102
RTVSPost2010Prop34
280
     0
102
RTVSPost2010PropOp34
 70
     1
102
RTVSPost2010Prop35
280
     0
102
RTVSPost2010PropOp35
 70
     1
102
RTVSPost2010Prop36
280
     0
102
RTVSPost2010PropOp36
 70
     1
102
RTVSPost2010Prop37
 90
       50
102
RTVSPost2010PropOp37
 70
     0
102
RTVSPost2010Prop38
140
0.0
102
RTVSPost2010PropOp38
 70
     0
102
RTVSPost2010Prop39
140
1.0
102
RTVSPost2010PropOp39
 70
     0
102
RTVSPost2010Prop40
 90
        0
102
RTVSPost2010PropOp40
 70
     0
102
RTVSPost2010Prop41ColorIndex
 90
       18
102
RTVSPost2010Prop41ColorRGB
 90
        0
102
RTVSPost2010PropOp41
 70
     0
102
RTVSPost2010Prop42
 90
       50
102
RTVSPost2010PropOp42
 70
     0
102
RTVSPost2010Prop43
 90
        3
102
RTVSPost2010PropOp43
 70
     0
102
RTVSPost2010Prop44ColorIndex
 90
        5
102
RTVSPost2010Prop44ColorRGB
 90
      255
102
RTVSPost2010PropOp44
 70
     0
102
RTVSPost2010Prop45
280
     0
102
RTVSPost2010PropOp45
 70
     1
102
RTVSPost2010Prop46
 90
       50
102
RTVSPost2010PropOp46
 70
     0
102
RTVSPost2010Prop47
 90
       50
102
RTVSPost2010PropOp47
 70
     0
102
RTVSPost2010Prop48
 90
       50
102
RTVSPost2010PropOp48
 70
     0
102
RTVSPost2010Prop49
280
     0
102
RTVSPost2010PropOp49
 70
     1
102
RTVSPost2010Prop50
 90
       50
102
RTVSPost2010PropOp50
 70
     0
102
RTVSPost2010Prop51ColorIndex
 90
      256
102
RTVSPost2010Prop51ColorRGB
 90
-16777216
102
RTVSPost2010PropOp51
 70
     0
102
RTVSPost2010Prop52
140
1.0
102
RTVSPost2010PropOp52
 70
     0
102
RTVSPost2010Prop53
 90
        2
102
RTVSPost2010PropOp53
 70
     0
102
RTVSPost2010Prop54
  1
strokes_ogs.tif
102
RTVSPost2010PropOp54
 70
     0
102
RTVSPost2010Prop55
280
     0
102
RTVSPost2010PropOp55
 70
     1
102
RTVSPost2010Prop56
140
1.0
102
RTVSPost2010PropOp56
 70
     0
102
RTVSPost2010Prop57
140
1.0
102
RTVSPost2010PropOp57
 70
     0
102
RTVSPropertyOp0
 70
     0
102
RTVSPropertyOp1
 70
     0
102
RTVSPropertyOp2
 70
     0
102
RTVSPropertyOp3
 70
     0
102
RTVSPropertyOp4
 70
     0
102
RTVSPropertyOp5
 70
     0
102
RTVSPropertyOp6
 70
     0
102
RTVSPropertyOp7
 70
     0
102
RTVSPropertyOp8
 70
     0
102
RTVSPropertyOp9
 70
     0
102
RTVSPropertyOp10
 70
     0
102
RTVSPropertyOp11
 70
     0
102
RTVSPropertyOp12
 70
     0
102
RTVSPropertyOp13
 70
     0
102
RTVSPropertyOp14
 70
     2
102
RTVSPropertyOp15
 70
     0
102
RTVSPropertyOp16
 70
     0
102
RTVSPropertyOp17
 70
     0
102
RTVSPropertyOp18
 70
     0
102
RTVSPropertyOp19
 70
     0
102
RTVSPropertyOp20
 70
     0
102
RTVSPropertyOp21
 70
     0
102
RTVSPropertyOp22
 70
     0
102
RTVSPropertyOp23
 70
     0
102
RTVSPropertyOp24
 70
     0
102
RTVSPropertyOp25
 70
     0
102
RTVSPropertyOp26
 70
     0
102
RTVSPropertyOp27
 70
     0
102
RTVSPropertyOp28
 70
     1
102
RTVSPropertyOp29
 70
     1
102
RTVSPropertyOp30
 70
     1
102
RTVSPropertyOp31
 70
     1
102
RTVSPropertyOp32
 70
     1
102
RTVSPropertyOp33
 70
     1
102
RTVSPropertyOp34
 70
     1
102
RTVSPropertyOp35
 70
     1
102
RTVSPropertyOp36
 70
     1
102
RTVSPropertyOp37
 70
     0
102
RTVSPropertyOp38
 70
     0
102
RTVSPropertyOp39
 70
     0
102
RTVSPropertyOp40
 70
     0
102
RTVSPropertyOp41
 70
     0
102
RTVSPropertyOp42
 70
     0
102
RTVSPropertyOp43
 70
     0
102
RTVSPropertyOp44
 70
     0
102
RTVSPropertyOp45
 70
     1
102
RTVSPropertyOp46
 70
     0
102
RTVSPropertyOp47
 70
     0
102
RTVSPropertyOp48
 70
     0
102
RTVSPropertyOp49
 70
     1
102
RTVSPropertyOp50
 70
     0
102
RTVSPropertyOp51
 70
     0
102
RTVSPropertyOp52
 70
     0
102
RTVSPropertyOp53
 70
     0
102
RTVSPropertyOp54
 70
     0
102
RTVSPropertyOp55
 70
     1
102
RTVSPropertyOp56
 70
     0
102
RTVSPropertyOp57
 70
     0
102
RTVSPropertyOp58
 70
     0
102
RTVSPropertyOp59
 70
     0
102
RTVSPropertyOp60
 70
     0
102
RTVSPropertyOp61
 70
     0
102
RTVSPropertyOp62
 70
     0
  0
XRECORD
  5
52C
102
{ACAD_REACTORS
330
52B
102
}
330
52B
100
AcDbXrecord
280
     1
102
RTVSPost2010Prop28
280
     0
102
RTVSPost2010PropOp28
 70
     1
102
RTVSPost2010Prop29
280
     1
102
RTVSPost2010PropOp29
 70
     1
102
RTVSPost2010Prop30
280
     1
102
RTVSPost2010PropOp30
 70
     1
102
RTVSPost2010Prop31
280
     0
102
RTVSPost2010PropOp31
 70
     1
102
RTVSPost2010Prop32
280
     0
102
RTVSPost2010PropOp32
 70
     1
102
RTVSPost2010Prop33
280
     0
102
RTVSPost2010PropOp33
 70
     1
102
RTVSPost2010Prop34
280
     0
102
RTVSPost2010PropOp34
 70
     1
102
RTVSPost2010Prop35
280
     0
102
RTVSPost2010PropOp35
 70
     1
102
RTVSPost2010Prop36
280
     0
102
RTVSPost2010PropOp36
 70
     1
102
RTVSPost2010Prop37
 90
       50
102
RTVSPost2010PropOp37
 70
     1
102
RTVSPost2010Prop38
140
0.0
102
RTVSPost2010PropOp38
 70
     1
102
RTVSPost2010Prop39
140
1.0
102
RTVSPost2010PropOp39
 70
     1
102
RTVSPost2010Prop40
 90
        0
102
RTVSPost2010PropOp40
 70
     1
102
RTVSPost2010Prop41ColorIndex
 90
       18
102
RTVSPost2010Prop41ColorRGB
 90
        0
102
RTVSPost2010PropOp41
 70
     1
102
RTVSPost2010Prop42
 90
       50
102
RTVSPost2010PropOp42
 70
     1
102
RTVSPost2010Prop43
 90
        3
102
RTVSPost2010PropOp43
 70
     1
102
RTVSPost2010Prop44ColorIndex
 90
        5
102
RTVSPost2010Prop44ColorRGB
 90
      255
102
RTVSPost2010PropOp44
 70
     1
102
RTVSPost2010Prop45
280
     0
102
RTVSPost2010PropOp45
 70
     1
102
RTVSPost2010Prop46
 90
       50
102
RTVSPost2010PropOp46
 70
     1
102
RTVSPost2010Prop47
 90
       50
102
RTVSPost2010PropOp47
 70
     1
102
RTVSPost2010Prop48
 90
       50
102
RTVSPost2010PropOp48
 70
     1
102
RTVSPost2010Prop49
280
     0
102
RTVSPost2010PropOp49
 70
     1
102
RTVSPost2010Prop50
 90
       50
102
RTVSPost2010PropOp50
 70
     1
102
RTVSPost2010Prop51ColorIndex
 90
      256
102
RTVSPost2010Prop51ColorRGB
 90
-16777216
102
RTVSPost2010PropOp51
 70
     0
102
RTVSPost2010Prop52
140
1.0
102
RTVSPost2010PropOp52
 70
     0
102
RTVSPost2010Prop53
 90
        2
102
RTVSPost2010PropOp53
 70
     1
102
RTVSPost2010Prop54
  1
strokes_ogs.tif
102
RTVSPost2010PropOp54
 70
     1
102
RTVSPost2010Prop55
280
     0
102
RTVSPost2010PropOp55
 70
     1
102
RTVSPost2010Prop56
140
1.0
102
RTVSPost2010PropOp56
 70
     1
102
RTVSPost2010Prop57
140
1.0
102
RTVSPost2010PropOp57
 70
     1
102
RTVSPropertyOp0
 70
     1
102
RTVSPropertyOp1
 70
     1
102
RTVSPropertyOp2
 70
     1
102
RTVSPropertyOp3
 70
     1
102
RTVSPropertyOp4
 70
     1
102
RTVSPropertyOp5
 70
     1
102
RTVSPropertyOp6
 70
     1
102
RTVSPropertyOp7
 70
     1
102
RTVSPropertyOp8
 70
     1
102
RTVSPropertyOp9
 70
     1
102
RTVSPropertyOp10
 70
     1
102
RTVSPropertyOp11
 70
     1
102
RTVSPropertyOp12
 70
     1
102
RTVSPropertyOp13
 70
     1
102
RTVSPropertyOp14
 70
     1
102
RTVSPropertyOp15
 70
     1
102
RTVSPropertyOp16
 70
     1
102
RTVSPropertyOp17
 70
     1
102
RTVSPropertyOp18
 70
     1
102
RTVSPropertyOp19
 70
     1
102
RTVSPropertyOp20
 70
     1
102
RTVSPropertyOp21
 70
     1
102
RTVSPropertyOp22
 70
     1
102
RTVSPropertyOp23
 70
     1
102
RTVSPropertyOp24
 70
     1
102
RTVSPropertyOp25
 70
     1
102
RTVSPropertyOp26
 70
     1
102
RTVSPropertyOp27
 70
     1
102
RTVSPropertyOp28
 70
     1
102
RTVSPropertyOp29
 70
     1
102
RTVSPropertyOp30
 70
     1
102
RTVSPropertyOp31
 70
     1
102
RTVSPropertyOp32
 70
     1
102
RTVSPropertyOp33
 70
     1
102
RTVSPropertyOp34
 70
     1
102
RTVSPropertyOp35
 70
     1
102
RTVSPropertyOp36
 70
     1
102
RTVSPropertyOp37
 70
     1
102
RTVSPropertyOp38
 70
     1
102
RTVSPropertyOp39
 70
     1
102
RTVSPropertyOp40
 70
     1
102
RTVSPropertyOp41
 70
     1
102
RTVSPropertyOp42
 70
     1
102
RTVSPropertyOp43
 70
     1
102
RTVSPropertyOp44
 70
     1
102
RTVSPropertyOp45
 70
     1
102
RTVSPropertyOp46
 70
     1
102
RTVSPropertyOp47
 70
     1
102
RTVSPropertyOp48
 70
     1
102
RTVSPropertyOp49
 70
     1
102
RTVSPropertyOp50
 70
     1
102
RTVSPropertyOp51
 70
     0
102
RTVSPropertyOp52
 70
     0
102
RTVSPropertyOp53
 70
     1
102
RTVSPropertyOp54
 70
     1
102
RTVSPropertyOp55
 70
     1
102
RTVSPropertyOp56
 70
     1
102
RTVSPropertyOp57
 70
     1
102
RTVSPropertyOp58
 70
     1
102
RTVSPropertyOp59
 70
     1
102
RTVSPropertyOp60
 70
     1
102
RTVSPropertyOp61
 70
     1
102
RTVSPropertyOp62
 70
     1
  0
XRECORD
  5
542
102
{ACAD_REACTORS
330
541
102
}
330
541
100
AcDbXrecord
280
     1
102
RTVSPost2010Prop28
280
     0
102
RTVSPost2010PropOp28
 70
     1
102
RTVSPost2010Prop29
280
     1
102
RTVSPost2010PropOp29
 70
     1
102
RTVSPost2010Prop30
280
     1
102
RTVSPost2010PropOp30
 70
     1
102
RTVSPost2010Prop31
280
     0
102
RTVSPost2010PropOp31
 70
     1
102
RTVSPost2010Prop32
280
     0
102
RTVSPost2010PropOp32
 70
     1
102
RTVSPost2010Prop33
280
     0
102
RTVSPost2010PropOp33
 70
     1
102
RTVSPost2010Prop34
280
     0
102
RTVSPost2010PropOp34
 70
     1
102
RTVSPost2010Prop35
280
     0
102
RTVSPost2010PropOp35
 70
     1
102
RTVSPost2010Prop36
280
     0
102
RTVSPost2010PropOp36
 70
     1
102
RTVSPost2010Prop37
 90
       50
102
RTVSPost2010PropOp37
 70
     1
102
RTVSPost2010Prop38
140
0.0
102
RTVSPost2010PropOp38
 70
     1
102
RTVSPost2010Prop39
140
1.0
102
RTVSPost2010PropOp39
 70
     1
102
RTVSPost2010Prop40
 90
        0
102
RTVSPost2010PropOp40
 70
     1
102
RTVSPost2010Prop41ColorIndex
 90
       18
102
RTVSPost2010Prop41ColorRGB
 90
        0
102
RTVSPost2010PropOp41
 70
     1
102
RTVSPost2010Prop42
 90
       50
102
RTVSPost2010PropOp42
 70
     1
102
RTVSPost2010Prop43
 90
        3
102
RTVSPost2010PropOp43
 70
     1
102
RTVSPost2010Prop44ColorIndex
 90
        5
102
RTVSPost2010Prop44ColorRGB
 90
      255
102
RTVSPost2010PropOp44
 70
     1
102
RTVSPost2010Prop45
280
     0
102
RTVSPost2010PropOp45
 70
     1
102
RTVSPost2010Prop46
 90
       50
102
RTVSPost2010PropOp46
 70
     1
102
RTVSPost2010Prop47
 90
       50
102
RTVSPost2010PropOp47
 70
     1
102
RTVSPost2010Prop48
 90
       50
102
RTVSPost2010PropOp48
 70
     1
102
RTVSPost2010Prop49
280
     0
102
RTVSPost2010PropOp49
 70
     1
102
RTVSPost2010Prop50
 90
       50
102
RTVSPost2010PropOp50
 70
     1
102
RTVSPost2010Prop51ColorIndex
 90
      256
102
RTVSPost2010Prop51ColorRGB
 90
-16777216
102
RTVSPost2010PropOp51
 70
     0
102
RTVSPost2010Prop52
140
1.0
102
RTVSPost2010PropOp52
 70
     0
102
RTVSPost2010Prop53
 90
        2
102
RTVSPost2010PropOp53
 70
     1
102
RTVSPost2010Prop54
  1
strokes_ogs.tif
102
RTVSPost2010PropOp54
 70
     1
102
RTVSPost2010Prop55
280
     0
102
RTVSPost2010PropOp55
 70
     1
102
RTVSPost2010Prop56
140
1.0
102
RTVSPost2010PropOp56
 70
     1
102
RTVSPost2010Prop57
140
1.0
102
RTVSPost2010PropOp57
 70
     1
102
RTVSPropertyOp0
 70
     1
102
RTVSPropertyOp1
 70
     1
102
RTVSPropertyOp2
 70
     1
102
RTVSPropertyOp3
 70
     1
102
RTVSPropertyOp4
 70
     1
102
RTVSPropertyOp5
 70
     1
102
RTVSPropertyOp6
 70
     1
102
RTVSPropertyOp7
 70
     1
102
RTVSPropertyOp8
 70
     1
102
RTVSPropertyOp9
 70
     1
102
RTVSPropertyOp10
 70
     1
102
RTVSPropertyOp11
 70
     1
102
RTVSPropertyOp12
 70
     1
102
RTVSPropertyOp13
 70
     1
102
RTVSPropertyOp14
 70
     1
102
RTVSPropertyOp15
 70
     1
102
RTVSPropertyOp16
 70
     1
102
RTVSPropertyOp17
 70
     1
102
RTVSPropertyOp18
 70
     1
102
RTVSPropertyOp19
 70
     1
102
RTVSPropertyOp20
 70
     1
102
RTVSPropertyOp21
 70
     1
102
RTVSPropertyOp22
 70
     1
102
RTVSPropertyOp23
 70
     1
102
RTVSPropertyOp24
 70
     1
102
RTVSPropertyOp25
 70
     1
102
RTVSPropertyOp26
 70
     1
102
RTVSPropertyOp27
 70
     1
102
RTVSPropertyOp28
 70
     1
102
RTVSPropertyOp29
 70
     1
102
RTVSPropertyOp30
 70
     1
102
RTVSPropertyOp31
 70
     1
102
RTVSPropertyOp32
 70
     1
102
RTVSPropertyOp33
 70
     1
102
RTVSPropertyOp34
 70
     1
102
RTVSPropertyOp35
 70
     1
102
RTVSPropertyOp36
 70
     1
102
RTVSPropertyOp37
 70
     1
102
RTVSPropertyOp38
 70
     1
102
RTVSPropertyOp39
 70
     1
102
RTVSPropertyOp40
 70
     1
102
RTVSPropertyOp41
 70
     1
102
RTVSPropertyOp42
 70
     1
102
RTVSPropertyOp43
 70
     1
102
RTVSPropertyOp44
 70
     1
102
RTVSPropertyOp45
 70
     1
102
RTVSPropertyOp46
 70
     1
102
RTVSPropertyOp47
 70
     1
102
RTVSPropertyOp48
 70
     1
102
RTVSPropertyOp49
 70
     1
102
RTVSPropertyOp50
 70
     1
102
RTVSPropertyOp51
 70
     0
102
RTVSPropertyOp52
 70
     0
102
RTVSPropertyOp53
 70
     1
102
RTVSPropertyOp54
 70
     1
102
RTVSPropertyOp55
 70
     1
102
RTVSPropertyOp56
 70
     1
102
RTVSPropertyOp57
 70
     1
102
RTVSPropertyOp58
 70
     1
102
RTVSPropertyOp59
 70
     1
102
RTVSPropertyOp60
 70
     1
102
RTVSPropertyOp61
 70
     1
102
RTVSPropertyOp62
 70
     1
  0
XRECORD
  5
540
102
{ACAD_REACTORS
330
53F
102
}
330
53F
100
AcDbXrecord
280
     1
102
RTVSPost2010Prop28
280
     0
102
RTVSPost2010PropOp28
 70
     1
102
RTVSPost2010Prop29
280
     1
102
RTVSPost2010PropOp29
 70
     1
102
RTVSPost2010Prop30
280
     1
102
RTVSPost2010PropOp30
 70
     1
102
RTVSPost2010Prop31
280
     0
102
RTVSPost2010PropOp31
 70
     1
102
RTVSPost2010Prop32
280
     0
102
RTVSPost2010PropOp32
 70
     1
102
RTVSPost2010Prop33
280
     0
102
RTVSPost2010PropOp33
 70
     1
102
RTVSPost2010Prop34
280
     0
102
RTVSPost2010PropOp34
 70
     1
102
RTVSPost2010Prop35
280
     0
102
RTVSPost2010PropOp35
 70
     1
102
RTVSPost2010Prop36
280
     0
102
RTVSPost2010PropOp36
 70
     1
102
RTVSPost2010Prop37
 90
       50
102
RTVSPost2010PropOp37
 70
     1
102
RTVSPost2010Prop38
140
0.0
102
RTVSPost2010PropOp38
 70
     1
102
RTVSPost2010Prop39
140
1.0
102
RTVSPost2010PropOp39
 70
     1
102
RTVSPost2010Prop40
 90
        0
102
RTVSPost2010PropOp40
 70
     1
102
RTVSPost2010Prop41ColorIndex
 90
       18
102
RTVSPost2010Prop41ColorRGB
 90
        0
102
RTVSPost2010PropOp41
 70
     1
102
RTVSPost2010Prop42
 90
       50
102
RTVSPost2010PropOp42
 70
     1
102
RTVSPost2010Prop43
 90
        3
102
RTVSPost2010PropOp43
 70
     1
102
RTVSPost2010Prop44ColorIndex
 90
        5
102
RTVSPost2010Prop44ColorRGB
 90
      255
102
RTVSPost2010PropOp44
 70
     1
102
RTVSPost2010Prop45
280
     0
102
RTVSPost2010PropOp45
 70
     1
102
RTVSPost2010Prop46
 90
       50
102
RTVSPost2010PropOp46
 70
     1
102
RTVSPost2010Prop47
 90
       50
102
RTVSPost2010PropOp47
 70
     1
102
RTVSPost2010Prop48
 90
       50
102
RTVSPost2010PropOp48
 70
     1
102
RTVSPost2010Prop49
280
     0
102
RTVSPost2010PropOp49
 70
     1
102
RTVSPost2010Prop50
 90
       50
102
RTVSPost2010PropOp50
 70
     1
102
RTVSPost2010Prop51ColorIndex
 90
      256
102
RTVSPost2010Prop51ColorRGB
 90
-16777216
102
RTVSPost2010PropOp51
 70
     0
102
RTVSPost2010Prop52
140
1.0
102
RTVSPost2010PropOp52
 70
     0
102
RTVSPost2010Prop53
 90
        2
102
RTVSPost2010PropOp53
 70
     1
102
RTVSPost2010Prop54
  1
strokes_ogs.tif
102
RTVSPost2010PropOp54
 70
     1
102
RTVSPost2010Prop55
280
     0
102
RTVSPost2010PropOp55
 70
     1
102
RTVSPost2010Prop56
140
1.0
102
RTVSPost2010PropOp56
 70
     1
102
RTVSPost2010Prop57
140
1.0
102
RTVSPost2010PropOp57
 70
     1
102
RTVSPropertyOp0
 70
     1
102
RTVSPropertyOp1
 70
     1
102
RTVSPropertyOp2
 70
     1
102
RTVSPropertyOp3
 70
     1
102
RTVSPropertyOp4
 70
     1
102
RTVSPropertyOp5
 70
     1
102
RTVSPropertyOp6
 70
     1
102
RTVSPropertyOp7
 70
     1
102
RTVSPropertyOp8
 70
     1
102
RTVSPropertyOp9
 70
     1
102
RTVSPropertyOp10
 70
     1
102
RTVSPropertyOp11
 70
     1
102
RTVSPropertyOp12
 70
     1
102
RTVSPropertyOp13
 70
     1
102
RTVSPropertyOp14
 70
     1
102
RTVSPropertyOp15
 70
     1
102
RTVSPropertyOp16
 70
     1
102
RTVSPropertyOp17
 70
     1
102
RTVSPropertyOp18
 70
     1
102
RTVSPropertyOp19
 70
     1
102
RTVSPropertyOp20
 70
     1
102
RTVSPropertyOp21
 70
     1
102
RTVSPropertyOp22
 70
     1
102
RTVSPropertyOp23
 70
     1
102
RTVSPropertyOp24
 70
     1
102
RTVSPropertyOp25
 70
     1
102
RTVSPropertyOp26
 70
     1
102
RTVSPropertyOp27
 70
     1
102
RTVSPropertyOp28
 70
     1
102
RTVSPropertyOp29
 70
     1
102
RTVSPropertyOp30
 70
     1
102
RTVSPropertyOp31
 70
     1
102
RTVSPropertyOp32
 70
     1
102
RTVSPropertyOp33
 70
     1
102
RTVSPropertyOp34
 70
     1
102
RTVSPropertyOp35
 70
     1
102
RTVSPropertyOp36
 70
     1
102
RTVSPropertyOp37
 70
     1
102
RTVSPropertyOp38
 70
     1
102
RTVSPropertyOp39
 70
     1
102
RTVSPropertyOp40
 70
     1
102
RTVSPropertyOp41
 70
     1
102
RTVSPropertyOp42
 70
     1
102
RTVSPropertyOp43
 70
     1
102
RTVSPropertyOp44
 70
     1
102
RTVSPropertyOp45
 70
     1
102
RTVSPropertyOp46
 70
     1
102
RTVSPropertyOp47
 70
     1
102
RTVSPropertyOp48
 70
     1
102
RTVSPropertyOp49
 70
     1
102
RTVSPropertyOp50
 70
     1
102
RTVSPropertyOp51
 70
     0
102
RTVSPropertyOp52
 70
     0
102
RTVSPropertyOp53
 70
     1
102
RTVSPropertyOp54
 70
     1
102
RTVSPropertyOp55
 70
     1
102
RTVSPropertyOp56
 70
     1
102
RTVSPropertyOp57
 70
     1
102
RTVSPropertyOp58
 70
     1
102
RTVSPropertyOp59
 70
     1
102
RTVSPropertyOp60
 70
     1
102
RTVSPropertyOp61
 70
     1
102
RTVSPropertyOp62
 70
     1
  0
XRECORD
  5
53A
102
{ACAD_REACTORS
330
539
102
}
330
539
100
AcDbXrecord
280
     1
102
RTVSPost2010Prop28
280
     0
102
RTVSPost2010PropOp28
 70
     1
102
RTVSPost2010Prop29
280
     1
102
RTVSPost2010PropOp29
 70
     1
102
RTVSPost2010Prop30
280
     1
102
RTVSPost2010PropOp30
 70
     1
102
RTVSPost2010Prop31
280
     0
102
RTVSPost2010PropOp31
 70
     1
102
RTVSPost2010Prop32
280
     0
102
RTVSPost2010PropOp32
 70
     1
102
RTVSPost2010Prop33
280
     0
102
RTVSPost2010PropOp33
 70
     1
102
RTVSPost2010Prop34
280
     0
102
RTVSPost2010PropOp34
 70
     1
102
RTVSPost2010Prop35
280
     0
102
RTVSPost2010PropOp35
 70
     1
102
RTVSPost2010Prop36
280
     0
102
RTVSPost2010PropOp36
 70
     1
102
RTVSPost2010Prop37
 90
       50
102
RTVSPost2010PropOp37
 70
     1
102
RTVSPost2010Prop38
140
0.0
102
RTVSPost2010PropOp38
 70
     1
102
RTVSPost2010Prop39
140
1.0
102
RTVSPost2010PropOp39
 70
     1
102
RTVSPost2010Prop40
 90
        0
102
RTVSPost2010PropOp40
 70
     1
102
RTVSPost2010Prop41ColorIndex
 90
       18
102
RTVSPost2010Prop41ColorRGB
 90
        0
102
RTVSPost2010PropOp41
 70
     1
102
RTVSPost2010Prop42
 90
       50
102
RTVSPost2010PropOp42
 70
     1
102
RTVSPost2010Prop43
 90
        3
102
RTVSPost2010PropOp43
 70
     1
102
RTVSPost2010Prop44ColorIndex
 90
        5
102
RTVSPost2010Prop44ColorRGB
 90
      255
102
RTVSPost2010PropOp44
 70
     1
102
RTVSPost2010Prop45
280
     0
102
RTVSPost2010PropOp45
 70
     1
102
RTVSPost2010Prop46
 90
       50
102
RTVSPost2010PropOp46
 70
     1
102
RTVSPost2010Prop47
 90
       50
102
RTVSPost2010PropOp47
 70
     1
102
RTVSPost2010Prop48
 90
       50
102
RTVSPost2010PropOp48
 70
     1
102
RTVSPost2010Prop49
280
     0
102
RTVSPost2010PropOp49
 70
     1
102
RTVSPost2010Prop50
 90
       50
102
RTVSPost2010PropOp50
 70
     1
102
RTVSPost2010Prop51ColorIndex
 90
      256
102
RTVSPost2010Prop51ColorRGB
 90
-16777216
102
RTVSPost2010PropOp51
 70
     0
102
RTVSPost2010Prop52
140
1.0
102
RTVSPost2010PropOp52
 70
     0
102
RTVSPost2010Prop53
 90
        2
102
RTVSPost2010PropOp53
 70
     1
102
RTVSPost2010Prop54
  1
strokes_ogs.tif
102
RTVSPost2010PropOp54
 70
     1
102
RTVSPost2010Prop55
280
     0
102
RTVSPost2010PropOp55
 70
     1
102
RTVSPost2010Prop56
140
1.0
102
RTVSPost2010PropOp56
 70
     1
102
RTVSPost2010Prop57
140
1.0
102
RTVSPost2010PropOp57
 70
     1
102
RTVSPropertyOp0
 70
     1
102
RTVSPropertyOp1
 70
     1
102
RTVSPropertyOp2
 70
     1
102
RTVSPropertyOp3
 70
     1
102
RTVSPropertyOp4
 70
     1
102
RTVSPropertyOp5
 70
     1
102
RTVSPropertyOp6
 70
     1
102
RTVSPropertyOp7
 70
     1
102
RTVSPropertyOp8
 70
     1
102
RTVSPropertyOp9
 70
     1
102
RTVSPropertyOp10
 70
     1
102
RTVSPropertyOp11
 70
     1
102
RTVSPropertyOp12
 70
     1
102
RTVSPropertyOp13
 70
     1
102
RTVSPropertyOp14
 70
     1
102
RTVSPropertyOp15
 70
     1
102
RTVSPropertyOp16
 70
     1
102
RTVSPropertyOp17
 70
     1
102
RTVSPropertyOp18
 70
     1
102
RTVSPropertyOp19
 70
     1
102
RTVSPropertyOp20
 70
     1
102
RTVSPropertyOp21
 70
     1
102
RTVSPropertyOp22
 70
     1
102
RTVSPropertyOp23
 70
     1
102
RTVSPropertyOp24
 70
     1
102
RTVSPropertyOp25
 70
     1
102
RTVSPropertyOp26
 70
     1
102
RTVSPropertyOp27
 70
     1
102
RTVSPropertyOp28
 70
     1
102
RTVSPropertyOp29
 70
     1
102
RTVSPropertyOp30
 70
     1
102
RTVSPropertyOp31
 70
     1
102
RTVSPropertyOp32
 70
     1
102
RTVSPropertyOp33
 70
     1
102
RTVSPropertyOp34
 70
     1
102
RTVSPropertyOp35
 70
     1
102
RTVSPropertyOp36
 70
     1
102
RTVSPropertyOp37
 70
     1
102
RTVSPropertyOp38
 70
     1
102
RTVSPropertyOp39
 70
     1
102
RTVSPropertyOp40
 70
     1
102
RTVSPropertyOp41
 70
     1
102
RTVSPropertyOp42
 70
     1
102
RTVSPropertyOp43
 70
     1
102
RTVSPropertyOp44
 70
     1
102
RTVSPropertyOp45
 70
     1
102
RTVSPropertyOp46
 70
     1
102
RTVSPropertyOp47
 70
     1
102
RTVSPropertyOp48
 70
     1
102
RTVSPropertyOp49
 70
     1
102
RTVSPropertyOp50
 70
     1
102
RTVSPropertyOp51
 70
     0
102
RTVSPropertyOp52
 70
     0
102
RTVSPropertyOp53
 70
     1
102
RTVSPropertyOp54
 70
     1
102
RTVSPropertyOp55
 70
     1
102
RTVSPropertyOp56
 70
     1
102
RTVSPropertyOp57
 70
     1
102
RTVSPropertyOp58
 70
     1
102
RTVSPropertyOp59
 70
     1
102
RTVSPropertyOp60
 70
     1
102
RTVSPropertyOp61
 70
     1
102
RTVSPropertyOp62
 70
     1
  0
XRECORD
  5
53C
102
{ACAD_REACTORS
330
53B
102
}
330
53B
100
AcDbXrecord
280
     1
102
RTVSPost2010Prop28
280
     0
102
RTVSPost2010PropOp28
 70
     1
102
RTVSPost2010Prop29
280
     1
102
RTVSPost2010PropOp29
 70
     1
102
RTVSPost2010Prop30
280
     1
102
RTVSPost2010PropOp30
 70
     1
102
RTVSPost2010Prop31
280
     0
102
RTVSPost2010PropOp31
 70
     1
102
RTVSPost2010Prop32
280
     0
102
RTVSPost2010PropOp32
 70
     1
102
RTVSPost2010Prop33
280
     0
102
RTVSPost2010PropOp33
 70
     1
102
RTVSPost2010Prop34
280
     0
102
RTVSPost2010PropOp34
 70
     1
102
RTVSPost2010Prop35
280
     0
102
RTVSPost2010PropOp35
 70
     1
102
RTVSPost2010Prop36
280
     0
102
RTVSPost2010PropOp36
 70
     1
102
RTVSPost2010Prop37
 90
       50
102
RTVSPost2010PropOp37
 70
     1
102
RTVSPost2010Prop38
140
0.0
102
RTVSPost2010PropOp38
 70
     1
102
RTVSPost2010Prop39
140
1.0
102
RTVSPost2010PropOp39
 70
     1
102
RTVSPost2010Prop40
 90
        0
102
RTVSPost2010PropOp40
 70
     1
102
RTVSPost2010Prop41ColorIndex
 90
       18
102
RTVSPost2010Prop41ColorRGB
 90
        0
102
RTVSPost2010PropOp41
 70
     1
102
RTVSPost2010Prop42
 90
       50
102
RTVSPost2010PropOp42
 70
     1
102
RTVSPost2010Prop43
 90
        3
102
RTVSPost2010PropOp43
 70
     1
102
RTVSPost2010Prop44ColorIndex
 90
        5
102
RTVSPost2010Prop44ColorRGB
 90
      255
102
RTVSPost2010PropOp44
 70
     1
102
RTVSPost2010Prop45
280
     0
102
RTVSPost2010PropOp45
 70
     1
102
RTVSPost2010Prop46
 90
       50
102
RTVSPost2010PropOp46
 70
     1
102
RTVSPost2010Prop47
 90
       50
102
RTVSPost2010PropOp47
 70
     1
102
RTVSPost2010Prop48
 90
       50
102
RTVSPost2010PropOp48
 70
     1
102
RTVSPost2010Prop49
280
     0
102
RTVSPost2010PropOp49
 70
     1
102
RTVSPost2010Prop50
 90
       50
102
RTVSPost2010PropOp50
 70
     1
102
RTVSPost2010Prop51ColorIndex
 90
      256
102
RTVSPost2010Prop51ColorRGB
 90
-16777216
102
RTVSPost2010PropOp51
 70
     0
102
RTVSPost2010Prop52
140
1.0
102
RTVSPost2010PropOp52
 70
     0
102
RTVSPost2010Prop53
 90
        2
102
RTVSPost2010PropOp53
 70
     1
102
RTVSPost2010Prop54
  1
strokes_ogs.tif
102
RTVSPost2010PropOp54
 70
     1
102
RTVSPost2010Prop55
280
     0
102
RTVSPost2010PropOp55
 70
     1
102
RTVSPost2010Prop56
140
1.0
102
RTVSPost2010PropOp56
 70
     1
102
RTVSPost2010Prop57
140
1.0
102
RTVSPost2010PropOp57
 70
     1
102
RTVSPropertyOp0
 70
     1
102
RTVSPropertyOp1
 70
     1
102
RTVSPropertyOp2
 70
     1
102
RTVSPropertyOp3
 70
     1
102
RTVSPropertyOp4
 70
     1
102
RTVSPropertyOp5
 70
     1
102
RTVSPropertyOp6
 70
     1
102
RTVSPropertyOp7
 70
     1
102
RTVSPropertyOp8
 70
     1
102
RTVSPropertyOp9
 70
     1
102
RTVSPropertyOp10
 70
     1
102
RTVSPropertyOp11
 70
     1
102
RTVSPropertyOp12
 70
     1
102
RTVSPropertyOp13
 70
     1
102
RTVSPropertyOp14
 70
     1
102
RTVSPropertyOp15
 70
     1
102
RTVSPropertyOp16
 70
     1
102
RTVSPropertyOp17
 70
     1
102
RTVSPropertyOp18
 70
     1
102
RTVSPropertyOp19
 70
     1
102
RTVSPropertyOp20
 70
     1
102
RTVSPropertyOp21
 70
     1
102
RTVSPropertyOp22
 70
     1
102
RTVSPropertyOp23
 70
     1
102
RTVSPropertyOp24
 70
     1
102
RTVSPropertyOp25
 70
     1
102
RTVSPropertyOp26
 70
     1
102
RTVSPropertyOp27
 70
     1
102
RTVSPropertyOp28
 70
     1
102
RTVSPropertyOp29
 70
     1
102
RTVSPropertyOp30
 70
     1
102
RTVSPropertyOp31
 70
     1
102
RTVSPropertyOp32
 70
     1
102
RTVSPropertyOp33
 70
     1
102
RTVSPropertyOp34
 70
     1
102
RTVSPropertyOp35
 70
     1
102
RTVSPropertyOp36
 70
     1
102
RTVSPropertyOp37
 70
     1
102
RTVSPropertyOp38
 70
     1
102
RTVSPropertyOp39
 70
     1
102
RTVSPropertyOp40
 70
     1
102
RTVSPropertyOp41
 70
     1
102
RTVSPropertyOp42
 70
     1
102
RTVSPropertyOp43
 70
     1
102
RTVSPropertyOp44
 70
     1
102
RTVSPropertyOp45
 70
     1
102
RTVSPropertyOp46
 70
     1
102
RTVSPropertyOp47
 70
     1
102
RTVSPropertyOp48
 70
     1
102
RTVSPropertyOp49
 70
     1
102
RTVSPropertyOp50
 70
     1
102
RTVSPropertyOp51
 70
     0
102
RTVSPropertyOp52
 70
     0
102
RTVSPropertyOp53
 70
     1
102
RTVSPropertyOp54
 70
     1
102
RTVSPropertyOp55
 70
     1
102
RTVSPropertyOp56
 70
     1
102
RTVSPropertyOp57
 70
     1
102
RTVSPropertyOp58
 70
     1
102
RTVSPropertyOp59
 70
     1
102
RTVSPropertyOp60
 70
     1
102
RTVSPropertyOp61
 70
     1
102
RTVSPropertyOp62
 70
     1
  0
XRECORD
  5
532
102
{ACAD_REACTORS
330
531
102
}
330
531
100
AcDbXrecord
280
     1
102
RTVSPost2010Prop28
280
     0
102
RTVSPost2010PropOp28
 70
     1
102
RTVSPost2010Prop29
280
     1
102
RTVSPost2010PropOp29
 70
     1
102
RTVSPost2010Prop30
280
     1
102
RTVSPost2010PropOp30
 70
     1
102
RTVSPost2010Prop31
280
     0
102
RTVSPost2010PropOp31
 70
     1
102
RTVSPost2010Prop32
280
     0
102
RTVSPost2010PropOp32
 70
     1
102
RTVSPost2010Prop33
280
     0
102
RTVSPost2010PropOp33
 70
     1
102
RTVSPost2010Prop34
280
     0
102
RTVSPost2010PropOp34
 70
     1
102
RTVSPost2010Prop35
280
     0
102
RTVSPost2010PropOp35
 70
     1
102
RTVSPost2010Prop36
280
     0
102
RTVSPost2010PropOp36
 70
     1
102
RTVSPost2010Prop37
 90
       50
102
RTVSPost2010PropOp37
 70
     1
102
RTVSPost2010Prop38
140
0.0
102
RTVSPost2010PropOp38
 70
     1
102
RTVSPost2010Prop39
140
1.0
102
RTVSPost2010PropOp39
 70
     1
102
RTVSPost2010Prop40
 90
        0
102
RTVSPost2010PropOp40
 70
     1
102
RTVSPost2010Prop41ColorIndex
 90
       18
102
RTVSPost2010Prop41ColorRGB
 90
        0
102
RTVSPost2010PropOp41
 70
     1
102
RTVSPost2010Prop42
 90
       50
102
RTVSPost2010PropOp42
 70
     1
102
RTVSPost2010Prop43
 90
        3
102
RTVSPost2010PropOp43
 70
     1
102
RTVSPost2010Prop44ColorIndex
 90
        5
102
RTVSPost2010Prop44ColorRGB
 90
      255
102
RTVSPost2010PropOp44
 70
     1
102
RTVSPost2010Prop45
280
     0
102
RTVSPost2010PropOp45
 70
     1
102
RTVSPost2010Prop46
 90
       50
102
RTVSPost2010PropOp46
 70
     1
102
RTVSPost2010Prop47
 90
       50
102
RTVSPost2010PropOp47
 70
     1
102
RTVSPost2010Prop48
 90
       50
102
RTVSPost2010PropOp48
 70
     1
102
RTVSPost2010Prop49
280
     0
102
RTVSPost2010PropOp49
 70
     1
102
RTVSPost2010Prop50
 90
       50
102
RTVSPost2010PropOp50
 70
     1
102
RTVSPost2010Prop51ColorIndex
 90
      256
102
RTVSPost2010Prop51ColorRGB
 90
-16777216
102
RTVSPost2010PropOp51
 70
     0
102
RTVSPost2010Prop52
140
1.0
102
RTVSPost2010PropOp52
 70
     0
102
RTVSPost2010Prop53
 90
        2
102
RTVSPost2010PropOp53
 70
     1
102
RTVSPost2010Prop54
  1
strokes_ogs.tif
102
RTVSPost2010PropOp54
 70
     1
102
RTVSPost2010Prop55
280
     0
102
RTVSPost2010PropOp55
 70
     1
102
RTVSPost2010Prop56
140
1.0
102
RTVSPost2010PropOp56
 70
     1
102
RTVSPost2010Prop57
140
1.0
102
RTVSPost2010PropOp57
 70
     1
102
RTVSPropertyOp0
 70
     1
102
RTVSPropertyOp1
 70
     1
102
RTVSPropertyOp2
 70
     1
102
RTVSPropertyOp3
 70
     1
102
RTVSPropertyOp4
 70
     1
102
RTVSPropertyOp5
 70
     1
102
RTVSPropertyOp6
 70
     1
102
RTVSPropertyOp7
 70
     1
102
RTVSPropertyOp8
 70
     1
102
RTVSPropertyOp9
 70
     1
102
RTVSPropertyOp10
 70
     1
102
RTVSPropertyOp11
 70
     1
102
RTVSPropertyOp12
 70
     1
102
RTVSPropertyOp13
 70
     1
102
RTVSPropertyOp14
 70
     1
102
RTVSPropertyOp15
 70
     1
102
RTVSPropertyOp16
 70
     1
102
RTVSPropertyOp17
 70
     1
102
RTVSPropertyOp18
 70
     1
102
RTVSPropertyOp19
 70
     1
102
RTVSPropertyOp20
 70
     1
102
RTVSPropertyOp21
 70
     1
102
RTVSPropertyOp22
 70
     1
102
RTVSPropertyOp23
 70
     1
102
RTVSPropertyOp24
 70
     1
102
RTVSPropertyOp25
 70
     1
102
RTVSPropertyOp26
 70
     1
102
RTVSPropertyOp27
 70
     1
102
RTVSPropertyOp28
 70
     1
102
RTVSPropertyOp29
 70
     1
102
RTVSPropertyOp30
 70
     1
102
RTVSPropertyOp31
 70
     1
102
RTVSPropertyOp32
 70
     1
102
RTVSPropertyOp33
 70
     1
102
RTVSPropertyOp34
 70
     1
102
RTVSPropertyOp35
 70
     1
102
RTVSPropertyOp36
 70
     1
102
RTVSPropertyOp37
 70
     1
102
RTVSPropertyOp38
 70
     1
102
RTVSPropertyOp39
 70
     1
102
RTVSPropertyOp40
 70
     1
102
RTVSPropertyOp41
 70
     1
102
RTVSPropertyOp42
 70
     1
102
RTVSPropertyOp43
 70
     1
102
RTVSPropertyOp44
 70
     1
102
RTVSPropertyOp45
 70
     1
102
RTVSPropertyOp46
 70
     1
102
RTVSPropertyOp47
 70
     1
102
RTVSPropertyOp48
 70
     1
102
RTVSPropertyOp49
 70
     1
102
RTVSPropertyOp50
 70
     1
102
RTVSPropertyOp51
 70
     0
102
RTVSPropertyOp52
 70
     0
102
RTVSPropertyOp53
 70
     1
102
RTVSPropertyOp54
 70
     1
102
RTVSPropertyOp55
 70
     1
102
RTVSPropertyOp56
 70
     1
102
RTVSPropertyOp57
 70
     1
102
RTVSPropertyOp58
 70
     1
102
RTVSPropertyOp59
 70
     1
102
RTVSPropertyOp60
 70
     1
102
RTVSPropertyOp61
 70
     1
102
RTVSPropertyOp62
 70
     1
  0
XRECORD
  5
526
102
{ACAD_REACTORS
330
525
102
}
330
525
100
AcDbXrecord
280
     1
102
RTVSPost2010Prop28
280
     0
102
RTVSPost2010PropOp28
 70
     1
102
RTVSPost2010Prop29
280
     1
102
RTVSPost2010PropOp29
 70
     1
102
RTVSPost2010Prop30
280
     1
102
RTVSPost2010PropOp30
 70
     1
102
RTVSPost2010Prop31
280
     0
102
RTVSPost2010PropOp31
 70
     1
102
RTVSPost2010Prop32
280
     0
102
RTVSPost2010PropOp32
 70
     1
102
RTVSPost2010Prop33
280
     0
102
RTVSPost2010PropOp33
 70
     1
102
RTVSPost2010Prop34
280
     0
102
RTVSPost2010PropOp34
 70
     1
102
RTVSPost2010Prop35
280
     0
102
RTVSPost2010PropOp35
 70
     1
102
RTVSPost2010Prop36
280
     0
102
RTVSPost2010PropOp36
 70
     1
102
RTVSPost2010Prop37
 90
       50
102
RTVSPost2010PropOp37
 70
     1
102
RTVSPost2010Prop38
140
0.0
102
RTVSPost2010PropOp38
 70
     1
102
RTVSPost2010Prop39
140
1.0
102
RTVSPost2010PropOp39
 70
     1
102
RTVSPost2010Prop40
 90
        0
102
RTVSPost2010PropOp40
 70
     1
102
RTVSPost2010Prop41ColorIndex
 90
       18
102
RTVSPost2010Prop41ColorRGB
 90
        0
102
RTVSPost2010PropOp41
 70
     1
102
RTVSPost2010Prop42
 90
       50
102
RTVSPost2010PropOp42
 70
     1
102
RTVSPost2010Prop43
 90
        3
102
RTVSPost2010PropOp43
 70
     1
102
RTVSPost2010Prop44ColorIndex
 90
        5
102
RTVSPost2010Prop44ColorRGB
 90
      255
102
RTVSPost2010PropOp44
 70
     1
102
RTVSPost2010Prop45
280
     0
102
RTVSPost2010PropOp45
 70
     1
102
RTVSPost2010Prop46
 90
       50
102
RTVSPost2010PropOp46
 70
     1
102
RTVSPost2010Prop47
 90
       50
102
RTVSPost2010PropOp47
 70
     1
102
RTVSPost2010Prop48
 90
       50
102
RTVSPost2010PropOp48
 70
     1
102
RTVSPost2010Prop49
280
     0
102
RTVSPost2010PropOp49
 70
     1
102
RTVSPost2010Prop50
 90
       50
102
RTVSPost2010PropOp50
 70
     1
102
RTVSPost2010Prop51ColorIndex
 90
      256
102
RTVSPost2010Prop51ColorRGB
 90
-16777216
102
RTVSPost2010PropOp51
 70
     0
102
RTVSPost2010Prop52
140
1.0
102
RTVSPost2010PropOp52
 70
     0
102
RTVSPost2010Prop53
 90
        2
102
RTVSPost2010PropOp53
 70
     1
102
RTVSPost2010Prop54
  1
strokes_ogs.tif
102
RTVSPost2010PropOp54
 70
     1
102
RTVSPost2010Prop55
280
     0
102
RTVSPost2010PropOp55
 70
     1
102
RTVSPost2010Prop56
140
1.0
102
RTVSPost2010PropOp56
 70
     1
102
RTVSPost2010Prop57
140
1.0
102
RTVSPost2010PropOp57
 70
     1
102
RTVSPropertyOp0
 70
     1
102
RTVSPropertyOp1
 70
     1
102
RTVSPropertyOp2
 70
     1
102
RTVSPropertyOp3
 70
     1
102
RTVSPropertyOp4
 70
     1
102
RTVSPropertyOp5
 70
     1
102
RTVSPropertyOp6
 70
     1
102
RTVSPropertyOp7
 70
     1
102
RTVSPropertyOp8
 70
     1
102
RTVSPropertyOp9
 70
     1
102
RTVSPropertyOp10
 70
     1
102
RTVSPropertyOp11
 70
     1
102
RTVSPropertyOp12
 70
     1
102
RTVSPropertyOp13
 70
     1
102
RTVSPropertyOp14
 70
     1
102
RTVSPropertyOp15
 70
     1
102
RTVSPropertyOp16
 70
     1
102
RTVSPropertyOp17
 70
     1
102
RTVSPropertyOp18
 70
     1
102
RTVSPropertyOp19
 70
     1
102
RTVSPropertyOp20
 70
     1
102
RTVSPropertyOp21
 70
     1
102
RTVSPropertyOp22
 70
     1
102
RTVSPropertyOp23
 70
     1
102
RTVSPropertyOp24
 70
     1
102
RTVSPropertyOp25
 70
     1
102
RTVSPropertyOp26
 70
     1
102
RTVSPropertyOp27
 70
     1
102
RTVSPropertyOp28
 70
     1
102
RTVSPropertyOp29
 70
     1
102
RTVSPropertyOp30
 70
     1
102
RTVSPropertyOp31
 70
     1
102
RTVSPropertyOp32
 70
     1
102
RTVSPropertyOp33
 70
     1
102
RTVSPropertyOp34
 70
     1
102
RTVSPropertyOp35
 70
     1
102
RTVSPropertyOp36
 70
     1
102
RTVSPropertyOp37
 70
     1
102
RTVSPropertyOp38
 70
     1
102
RTVSPropertyOp39
 70
     1
102
RTVSPropertyOp40
 70
     1
102
RTVSPropertyOp41
 70
     1
102
RTVSPropertyOp42
 70
     1
102
RTVSPropertyOp43
 70
     1
102
RTVSPropertyOp44
 70
     1
102
RTVSPropertyOp45
 70
     1
102
RTVSPropertyOp46
 70
     1
102
RTVSPropertyOp47
 70
     1
102
RTVSPropertyOp48
 70
     1
102
RTVSPropertyOp49
 70
     1
102
RTVSPropertyOp50
 70
     1
102
RTVSPropertyOp51
 70
     0
102
RTVSPropertyOp52
 70
     0
102
RTVSPropertyOp53
 70
     1
102
RTVSPropertyOp54
 70
     1
102
RTVSPropertyOp55
 70
     1
102
RTVSPropertyOp56
 70
     1
102
RTVSPropertyOp57
 70
     1
102
RTVSPropertyOp58
 70
     1
102
RTVSPropertyOp59
 70
     1
102
RTVSPropertyOp60
 70
     1
102
RTVSPropertyOp61
 70
     1
102
RTVSPropertyOp62
 70
     1
  0
XRECORD
  5
53E
102
{ACAD_REACTORS
330
53D
102
}
330
53D
100
AcDbXrecord
280
     1
102
RTVSPost2010Prop28
280
     0
102
RTVSPost2010PropOp28
 70
     1
102
RTVSPost2010Prop29
280
     1
102
RTVSPost2010PropOp29
 70
     1
102
RTVSPost2010Prop30
280
     1
102
RTVSPost2010PropOp30
 70
     1
102
RTVSPost2010Prop31
280
     0
102
RTVSPost2010PropOp31
 70
     1
102
RTVSPost2010Prop32
280
     0
102
RTVSPost2010PropOp32
 70
     1
102
RTVSPost2010Prop33
280
     0
102
RTVSPost2010PropOp33
 70
     1
102
RTVSPost2010Prop34
280
     0
102
RTVSPost2010PropOp34
 70
     1
102
RTVSPost2010Prop35
280
     0
102
RTVSPost2010PropOp35
 70
     1
102
RTVSPost2010Prop36
280
     0
102
RTVSPost2010PropOp36
 70
     1
102
RTVSPost2010Prop37
 90
       50
102
RTVSPost2010PropOp37
 70
     1
102
RTVSPost2010Prop38
140
0.0
102
RTVSPost2010PropOp38
 70
     1
102
RTVSPost2010Prop39
140
1.0
102
RTVSPost2010PropOp39
 70
     1
102
RTVSPost2010Prop40
 90
        0
102
RTVSPost2010PropOp40
 70
     1
102
RTVSPost2010Prop41ColorIndex
 90
       18
102
RTVSPost2010Prop41ColorRGB
 90
        0
102
RTVSPost2010PropOp41
 70
     1
102
RTVSPost2010Prop42
 90
       50
102
RTVSPost2010PropOp42
 70
     1
102
RTVSPost2010Prop43
 90
        3
102
RTVSPost2010PropOp43
 70
     1
102
RTVSPost2010Prop44ColorIndex
 90
        5
102
RTVSPost2010Prop44ColorRGB
 90
      255
102
RTVSPost2010PropOp44
 70
     1
102
RTVSPost2010Prop45
280
     0
102
RTVSPost2010PropOp45
 70
     1
102
RTVSPost2010Prop46
 90
       50
102
RTVSPost2010PropOp46
 70
     1
102
RTVSPost2010Prop47
 90
       50
102
RTVSPost2010PropOp47
 70
     1
102
RTVSPost2010Prop48
 90
       50
102
RTVSPost2010PropOp48
 70
     1
102
RTVSPost2010Prop49
280
     0
102
RTVSPost2010PropOp49
 70
     1
102
RTVSPost2010Prop50
 90
       50
102
RTVSPost2010PropOp50
 70
     1
102
RTVSPost2010Prop51ColorIndex
 90
      256
102
RTVSPost2010Prop51ColorRGB
 90
-16777216
102
RTVSPost2010PropOp51
 70
     0
102
RTVSPost2010Prop52
140
1.0
102
RTVSPost2010PropOp52
 70
     0
102
RTVSPost2010Prop53
 90
        2
102
RTVSPost2010PropOp53
 70
     1
102
RTVSPost2010Prop54
  1
strokes_ogs.tif
102
RTVSPost2010PropOp54
 70
     1
102
RTVSPost2010Prop55
280
     0
102
RTVSPost2010PropOp55
 70
     1
102
RTVSPost2010Prop56
140
1.0
102
RTVSPost2010PropOp56
 70
     1
102
RTVSPost2010Prop57
140
1.0
102
RTVSPost2010PropOp57
 70
     1
102
RTVSPropertyOp0
 70
     1
102
RTVSPropertyOp1
 70
     1
102
RTVSPropertyOp2
 70
     1
102
RTVSPropertyOp3
 70
     1
102
RTVSPropertyOp4
 70
     1
102
RTVSPropertyOp5
 70
     1
102
RTVSPropertyOp6
 70
     1
102
RTVSPropertyOp7
 70
     1
102
RTVSPropertyOp8
 70
     1
102
RTVSPropertyOp9
 70
     1
102
RTVSPropertyOp10
 70
     1
102
RTVSPropertyOp11
 70
     1
102
RTVSPropertyOp12
 70
     1
102
RTVSPropertyOp13
 70
     1
102
RTVSPropertyOp14
 70
     1
102
RTVSPropertyOp15
 70
     1
102
RTVSPropertyOp16
 70
     1
102
RTVSPropertyOp17
 70
     1
102
RTVSPropertyOp18
 70
     1
102
RTVSPropertyOp19
 70
     1
102
RTVSPropertyOp20
 70
     1
102
RTVSPropertyOp21
 70
     1
102
RTVSPropertyOp22
 70
     1
102
RTVSPropertyOp23
 70
     1
102
RTVSPropertyOp24
 70
     1
102
RTVSPropertyOp25
 70
     1
102
RTVSPropertyOp26
 70
     1
102
RTVSPropertyOp27
 70
     1
102
RTVSPropertyOp28
 70
     1
102
RTVSPropertyOp29
 70
     1
102
RTVSPropertyOp30
 70
     1
102
RTVSPropertyOp31
 70
     1
102
RTVSPropertyOp32
 70
     1
102
RTVSPropertyOp33
 70
     1
102
RTVSPropertyOp34
 70
     1
102
RTVSPropertyOp35
 70
     1
102
RTVSPropertyOp36
 70
     1
102
RTVSPropertyOp37
 70
     1
102
RTVSPropertyOp38
 70
     1
102
RTVSPropertyOp39
 70
     1
102
RTVSPropertyOp40
 70
     1
102
RTVSPropertyOp41
 70
     1
102
RTVSPropertyOp42
 70
     1
102
RTVSPropertyOp43
 70
     1
102
RTVSPropertyOp44
 70
     1
102
RTVSPropertyOp45
 70
     1
102
RTVSPropertyOp46
 70
     1
102
RTVSPropertyOp47
 70
     1
102
RTVSPropertyOp48
 70
     1
102
RTVSPropertyOp49
 70
     1
102
RTVSPropertyOp50
 70
     1
102
RTVSPropertyOp51
 70
     0
102
RTVSPropertyOp52
 70
     0
102
RTVSPropertyOp53
 70
     1
102
RTVSPropertyOp54
 70
     1
102
RTVSPropertyOp55
 70
     1
102
RTVSPropertyOp56
 70
     1
102
RTVSPropertyOp57
 70
     1
102
RTVSPropertyOp58
 70
     1
102
RTVSPropertyOp59
 70
     1
102
RTVSPropertyOp60
 70
     1
102
RTVSPropertyOp61
 70
     1
102
RTVSPropertyOp62
 70
     1
  0
ENDSEC
  0
EOF
